Pressure 4 5 - Pieces Chords & Tabs

 

Pieces Chords & Tabs

Pressure 4 5 Chords & Tabs

Version: 1 Type: Tab 1 rating
1 star 2 stars 3 stars 4 stars 5 stars
comments

Pieces Tab

   
Band: Pressure 4-5
Song: Pieces
Tabbed By Mit

arranged for 2 guitars
dropped c tuning (high to low: dafcgc)
chords used:

  D#maj7               Cmin7                  
e|--5---------------------------------------------------|
B|--5---------6-----------------------------------------|
G|--5---------5-----------------------------------------|
D|--7---------3-----------------------------------------|
A|--8---------5-----------------------------------------|
E|------------------------------------------------------|

Hold down the whole chord during the intro to let all notes ring out.


Intro : G1 clean

   D#maj7
e|--------------------------5------|-----------------------------|
B|-5------------5-------------5----|-----------------------6-----|
G|------------------------------5--|-5----------5------------5---|
D|----7---7--------7---7-----------|---3---3------3----3---------|
A|------8---8--------8---8---------|-----5---5------5----5-----5-|
E|---------------------------------|-----------------------------|x2

  On second time, G2 dirty plays
e|---------------------------------|------------------------------|
B|---------------------------------|------------------------------|
G|---------------------------------|----------------------10------|
D|---------------------------------|------------------------10----|
A|---------------------------------|--------------------------12p0|
E|---------------------------------|------------------------------|


 G2   RIFF A
e|-------------------------------|--------------------------------|
B|-------------------------------|--------------------------------|
G|-----------------------9-9-9-9-|-----------------------5-5-5-5--|
D|-----------------------7-7-7-9-|-----------------------3-3-3-3--|
A|-7-0-7-8-0--7-0-7-8-0--8-8-8-8-|-5-0-5-7-0--5-0-5-7-0--5-5-5-5--|
E|-7-0-7-8-0--7-0-7-8-0----------|-5-0-5-7-0--5-0-5-7-0-----------|x4

 On third time, G1 clean plays
e|-------------------------------|--------------------------------|
B|-------------------------------|--------------------------------|
G|-9------------9-------------9--|--5-----------5------------10---|
D|-------------------------------|--------------------------------|
A|-------------------------------|--------------------------------|
E|-------------------------------|--------------------------------|x2

[ Tab from: http://www.guitartabs.cc/tabs/p/pressure_4_5/pieces_tab.html ]
 Verse  G1 & G2 dirty
  P.M---------------------------|P.M.--------------------------------|
e|------------------------------|------------------------------|
B|------------------------------|------------------------------|
G|-----------------------9------|-----------------------5------|
D|-------------------------7----|-------------------------3----|
A|---------------------------8--|---------------------------5--|
E|-7-0-7-8-0--7-0-7-8-0---------|-5-0-5-7-0--5-0-5-7-0---------|
  Take me right now               Up your arm right ...

 G1 & G2 play RIFF A 2x
     What if I now forgive you...

 Chorus
 G1 & G2 dirty
e|---------------------|-----------------|
B|---------------------|-----------------|
G|------------/9-9-9-9-|-5-5-5-5---------|
D|-7-0--0-0---/9-9-9-9-|-5-5-5-5-3-3-3-3-|
A|-7-0--0-0---/7-7-7-7-|-3-3-3-3-3-3-3-3-|
E|-7-0--0-0------------|---------3-3-3-3-|
   Take me down there   share your sec-


 G1
e|---------------------------|--------------------------|----------------|
B|---------------------------|--------------------------|----------------|
G|-/7-7-7-7------------------|-/9-9-9-9-5-5-5-5---------|-/7-7-7-7-------|
D|-/7-7-7-7--7-7-7-7-0-0-0-0-|-/9-9-9-9-5-5-5-5-3-3-3-3-|-/7-7-7-7-7-7-7-|
A|-/5-5-5-5--7-7-7-7-0-0-0-0-|-/7-7-7-7-3-3-3-3-3-3-3-3-|-/5-5-5-5-7-7-7-|
E|-----------7-7-7-7-0-0-0-0-|------------------3-3-3-3-|----------7-7-7-|
  G2
e|---------------------------|--------------------------|----------------|
B|---------------------------|--------------------------|----------------|
G|-/7-7-7-7/9-9-9------------|-/9-9-9-9-5-5-5-5---------|-/7-7-7-7/9-9-9-|
D|--x-x-x-x-x-x-x--7-0-0-0-0-|-/9-9-9-9-5-5-5-5-3-3-3-3-|--x-x-x-x-x-x-x-|
A|-/5-5-5-5/7-7-7--7-0-0-0-0-|-/7-7-7-7-3-3-3-3-3-3-3-3-|-/5-5-5-5/7-7-7-|
E|-----------------7-0-0-0-0-|------------------3-3-3-3-|----------------|
  -rets         break    the     boundaries   ... 
           1/2 of intro
            Verse 2
             Wake me ...
      ...
      You just laid down and died
         
            Chorus

 Bridge G1 & G2  (x2)
e|---------------|---------------|----------------------|-------------------|
B|---------------|---------------|----------------------|-------------------|
G|---------------|---------------|----------------------|-------------------|
D|-7-7--3--0-0---|-7-7--3--0-0---|-10--10-----10--------|-xx-10-10/12-12-12-|
A|-7-7--3--0-0---|-7-7--3--0-0---|-8---8------8---------|-xx-8---8/10-10-10-|
E|-7-7--3--0-0---|-7-7--3--0-0---|-8---8------8---------|-xx-8---8/10-10-10-|
 Just say--                   on the way  down          you'll wave to me   

 

 
  G2 plays verse
 G1 solo (x2)  
e|-------------------------------|---------------------------------|
B|-------------------------------|---------------------------------|
G|-9------------9-------------9--|--7-----------7-------------10---|
D|-------------------------------|---------------------------------|
A|-------------------------------|---------------------------------|
E|-------------------------------|---------------------------------|

  Chorus
     Just say that you'll break me right into pieces
Comments