Pressure 4 5 - Melt Me Down Chords & Tabs

 

Melt Me Down Chords & Tabs

Pressure 4 5 Chords & Tabs

Version: 2 Type: Tab 0 ratings
1 star 2 stars 3 stars 4 stars 5 stars
comments

Melt Me Down Tab

Artist- Pressure 4-5
Song- Melt Me Down
Tabber- Iconoclast
Tuning- Drop C

Intro- guitar 1 (its also verse but the verse is palm muted)
----------------------------------
----------------------------------
----------------------------------
---8---------------8--------------
----------------------------------
-5---0-5-7-0-7-0-8---0-5-7-0-3-0--

Intro- guitar 2
---10------------10---------------
-8----8-10-10-11-----11-10-10-----
----------------------------------
----------------------------------
----------------------------------
----------------------------------

Chorus
-----------------------------------------
-----------------------------------------
---------------------2-2-2-2-2-------2-2-
-8-8-8-8-8-0-0-0-0-0-3-3-3-3-3-3-3-3-2-2-
-5-5-5-5-5-0-0-0-0-0-1-1-1-1-1-3-3-3-0-0-
-5-5-5-5-5-0-0-0-0-0-----------3-3-3-----
[ Tab from: http://www.guitartabs.cc/tabs/p/pressure_4_5/melt_me_down_tab_ver_2.html ]
Bridge
----------------------------------
----------------------------------
---------------------2-----2---2--
-----8-------7-----3---3----------
---5---5---5---5-1-----------0----
-5-------0---------------3--------

-----|---------------------------------------------------
-3-3-|---------------------------------------------------
-3-2-|---------------------------------------------------
-3-2-|-1-1-1-1-1-1-1-1-1-1-3-1-1-1-1-1-1-1-1-1-1-3-------
-1-0-|-1-1-1-1-1-1-1-1-1-1-3-1-1-1-1-1-1-1-1-1-1-3-------
-----|-1-1-1-1-1-1-1-1-1-1-3-1-1-1-1-1-1-1-1-1-1-3-------

---------------------------------------------------
---------------------------------------------------
---------------------------------------------5-5-5-
-5-5-5-8-8-8-8-7-7-7-7-5-5-5-8-8-8-8-7-7-7-7-5-5-5-
-5-5-5-5-5-5-5-5-5-5-5-5-5-5-5-5-5-5-5-5-5-5-5-5-5-
-5-5-5-5-5-5-5-5-5-5-5-5-5-5-5-5-5-5-5-5-5-5-5-5-5-

Outro (repeats this a few times)
--------------------------------------------------------
--------------------------------------------------------
--------------------------------------------------------
-5-5-5-5-5-5-5-5-5-5-1-5-5-5-5-5-5-5-5-5-5-1------------
-5-5-5-5-5-5-5-5-5-5-1-5-5-5-5-5-5-5-5-5-5-1------------
-5-5-5-5-5-5-5-5-5-5-1-5-5-5-5-5-5-5-5-5-5-1------------
Comments