Pressure 4 5 - Melt Me Down Chords & Tabs

 

Melt Me Down Chords & Tabs

Pressure 4 5 Chords & Tabs

Version: 1 Type: Tab 0 ratings
1 star 2 stars 3 stars 4 stars 5 stars
comments

Melt Me Down Tab

   
Band: Pressure 4-5
Song: Melt Me Down
Tabbed By Mit

Dropped C tuning
Tune down all strings 1 whole step, 6th string down 1
additional step.
(p= pulloff  P.M.= palm mute)
Intro
RIFF A 

e|------------------|------------------|------------------| x3
B|------------------|------------------|------------------|
G|------------------|------------------|------------------|
D|------------------|------------------|------------------|
A|------------------|------------------|------------------|
E|-5-8-0-7-8-0-7p0--|-8-0-0-5-7-0-3p0--|-5-8-0-7-8-0-7p0--|

e|-------------|
B|-------------|
G|-------------|
D|-------------|
A|-------------|
E|-8-8-0-5-7---|


Verse 1
RIFF B
P.M.---------------------------------|
e|------------------|-----------------|
B|------------------|-----------------|
G|------------------|-----------------|
D|-5-8-0-7-8-0-7-0--|-8-0-0-5-7-0-3-0-|
A|-5-8-0-7-8-0-7-0--|-8-0-0-5-7-0-3-0-|
E|-5-8-0-7-8-0-7-0--|-8-0-0-5-7-0-3-0-|
   Born     into      fire              

P.M.---------------------------|
e|-----------------|-----------------|
B|-----------------|-----------------|
G|-----------------|-----------------|
D|-5-8-0-7-8-0-7-0-|-8-0-0-5-7-0-3---|
A|-5-8-0-7-8-0-7-0-|-8-0-0-5-7-0-3---|
E|-5-8-0-7-8-0-7-0-|-8-0-0-5-7-0-3---|
  No given          Shape no
                
 Sense of a beaten road
 ....
 ....
 ....
Or eighteen dead and decided


Chorus Riff
e|----------------------|----------------------|
B|----------------------|----------------------|
G|----------------------|----------------------|
D|-5-5-5--55--0-0-0--00-|-8-8-8--88--3-3-3--77-|
A|-5-5-5--55--0-0-0--00-|-8-8-8--88--3-3-3--77-|
E|-5-5-5--55--0-0-0--00-|-8-8-8--88--3-3-3--77-|
  Melt   me down          Pour  ..
  Into   the mold         But I'll ...


RIFF A x2

Verse 2 (with riff B):
[ Tab from: http://www.guitartabs.cc/tabs/p/pressure_4_5/melt_me_down_tab.html ]
    Time is our magnet
...
...
...

Chorus
Bridge
e|------------------|--------------------|
B|------------------|--------------------|
G|------------------|--------------------|
D|----8---------7---|-----8------3----7--|
A|--5---5-----5---5-|---8---8----3----7--|
E|5---------0-------|-8--------3----7----|
  Have we  all       Become molded


e|------------------|--------------------|
B|------------------|--------------------|
G|------------------|--------------------|
D|----8---------7---|-----8--xx--3-------|
A|--5---5-----5---5-|---8----xx--3-------|
E|5---------0-------|-8------xx--3-------|
  Alive to the w...

 (clean) 
e|--------------|
B|--------------|
G|--------------|
D|--12---12-----|
A|--10---10-----|
E|--------------|
  To be nothing

 (dist.)                           (1 then 3, not 13)
e|-------------------|-------------------|
B|-------------------|-------------------|
G|-------------------|-------------------|
D|-1-1-1-11-1-1-1-13-|-1-1-1-11-1-1-1-13-|
A|-1-1-1-11-1-1-1-13-|-1-1-1-11-1-1-1-13-|
E|-1-1-1-11-1-1-1-13-|-1-1-1-11-1-1-1-13-|
   I'll Break out      I'll Make it        
                                           (10's, not
1's)
e|------------------------|------------------------|
B|------------------------|------------------------|
G|------------------------|------------------------|
D|-5555--8888--7777--5555-|-5555--8888--7777--1111-|
A|-5555--5555--5555--5555-|-5555--5555--5555--5555-|
E|-5555--5555--5555--5555-|-5555--5555--5555--5555-|x2
  Yeah I'll make it        Do  ...


 RIFF A

 With RIFF B:
 Born ...
...
...
...

 Chorus 

 With Bridge:
  I will not become molded
 Allowed ...

 
     x4
e|--------------------------|
B|--------------------------|
G|--------------------------|
D|-5-5-5--5-5-5--5-5-5--5-1-|
A|-5-5-5--5-5-5--5-5-5--5-1-|
E|-5-5-5--5-5-5--5-5-5--5-1-|
   I'll be nothing now




Comments