Presley Elvis - That's All Right, Mama Chords & Tabs

 

That's All Right, Mama Chords & Tabs

Presley Elvis Chords & Tabs

Version: 1 Type: Tab 0 ratings
1 star 2 stars 3 stars 4 stars 5 stars
comments

That's All Right, Mama Tab

   
##################################################################################
# This file is the author's own work and represents their interpretation of the  #
# song. You may only use this file for private study, scholarship, or research.  #
##################################################################################

That's All Right, Mama
----------------------

Standard tuning.

Intro: A

(Fast country shuffle)
E||-------5------5-------|--9--------12----9-------|-------5------5-------|
B||-------5---------5----|--10---------------------|-------5---------5----|
G||----------------------|--------9-----------9----|----------------------|
D||----------------------|-------------------------|----------------------|
A||----------------------|-------------------------|----------------------|
E||--5-------------------|-------------------------|--5-------------------|

E||--9--------12----9-------|-------5------5-------|--9--------12----9-------|
B||--10---------------------|-------5---------5----|--10---------------------|
G||--------9-----------9----|----------------------|--------9-----------9----|
D||-------------------------|----------------------|-------------------------|
A||-------------------------|----------------------|-------------------------|
E||-------------------------|--5-------------------|-------------------------|

E||--9---9---9---9---9---9-----9---|--9---9---9---9---9---9---------|
B||--10--10--10--10--10--10----10--|--10--10--10--10--10--10--10\---|
G||--------------------------------|--------------------------------|
D||--------------------------------|--------------------------------|
A||--------------------------------|--------------------------------|
E||--------------------------------|--------------------------------|

E||----------------------|--5-------------------|----------------------|
B||-------7--------------|--7-------7------5----|-------7--------------|
G||-------5------5-------|-------5--------------|-------5------5-------|
D||-----------------7----|----------------------|-----------------7----|
A||--5-------------------|--5-------------------|--5-------------------|
E||----------------------|----------------------|----------------------|

E||--5-------------------|------7--7--7--7--7----|--7-------7----7--7----|
B||--7-------7------5----|------7--7--7--7--7----|--7-------7----7--7----|
G||-------5--------------|------7--7--7--7--7----|--7----7--7----7--7----|
D||----------------------|-----------------------|-------6---------------|
A||--5-------------------|-----------------------|-----------------------|
E||----------------------|-----------------------|-----------------------|

E||------7--7--7--7--7----|--7--7--7--9----7--7----|
B||------7--7--7--7--7----|--7--7--7--9----7--7----|
G||------7--7--7--7--7----|--7--7--7--7----7--7----|
D||-----------------------|------------------------|
A||-----------------------|------------------------|
E||-----------------------|------------------------|

                         +-----------------------       +------
                         | 1, 3                         | 2 = Solo
[ Tab from: http://www.guitartabs.cc/tabs/p/presley_elvis/thats_all_right_mama_tab.html ]
E||-------5--------------|--5------------5-------||
B||--------------7p-5----|----------7------------||
G||----------------------|-------6----------7----||
D||-------7--------------|-----------------------||
A||----------------------|-----------------------||
E||--5-------------------|--5--------------------||



Solo:
E||---------------------|----------------------|-----------------------|
B||---------------------|-------5----3----2----|--3/-5-----------------|
G||---------------------|-------6----4----2----|--4/-6-----------------|
D||---------------------|----------------------|-----------------------|
A||---------------------|----------------------|-----------------------|
E||------0----2----4----|--5-------------------|--------0----2----4----|

E||----------------------|-----------------------|----------------------|
B||-------5----3----2----|--3/-5-----------------|-------5----3----2----|
G||-------6----4----2----|--4/-6-----------------|-------6----4----2----|
D||----------------------|-----------------------|----------------------|
A||----------------------|-----------------------|----------------------|
E||--5-------------------|--------0----2----4----|--5-------------------|

E||----------------------|----------------------|----------------------|
B||--3/-5----7----5------|--7r-------5----------|----------------------|
G||--4/-6----------------|----------------7--6--|----4-----------------|
D||----------------------|----------------------|-----------7--6--5----|
A||----------------------|----------------------|----------------------|
E||----------------------|----------------------|----------------------|

E||-------5--------------|--5------5------------|-------5--------------|
B||--------------5-------|--------------5-------|--------------5-------|
G||-----------------5----|-----------------5----|-----------------5----|
D||--4-------------------|----------------------|--4-------------------|
A||----------------------|----------------------|----------------------|
E||----------------------|----------------------|----------------------|

E||--5------5------------|-------0--------------|--3----3------0-------|
B||--------------5-------|--------------0-------|-----------------0----|
G||-----------------5----|-----------------1----|----------------------|
D||----------------------|----------------------|----------------------|
A||----------------------|----------------------|----------------------|
E||----------------------|--0-------------------|----------------------|

E||-------0--------------|--3----3------0-------|-------5------5-------|
B||--------------0-------|-----------------0----|-------5---------5----|
G||-----------------1----|----------------------|----------------------|
D||----------------------|----------------------|----------------------|
A||----------------------|----------------------|----------------------|
E||--0-------------------|----------------------|--5-------------------|

E||--9--------12----9-------|-------5------5-------|--9--------12----9-------||
B||--10---------------------|-------5---------5----|--10---------------------||
G||--------9-----------9----|----------------------|--------9-----------9----||
D||-------------------------|----------------------|-------------------------||
A||-------------------------|----------------------|-------------------------||
E||-------------------------|--5-------------------|-------------------------||
Comments