Presley Elvis - Suspicious Minds Chords & Tabs

 

Suspicious Minds Chords & Tabs

Presley Elvis Chords & Tabs

Version: 1 Type: Tab 0 ratings
1 star 2 stars 3 stars 4 stars 5 stars
comments

Suspicious Minds Tab

   
Elvis Presley
Suspicious Minds


                         2x                           4x                                                    2x                                                 
----------------------------|--------0-------------------|
--------0---------1---1-----|--------1---------1---1-----|
--------0------------------o|-----0-----0--0h2---2---0--o|
-----0-----0--0h2---2---0--o|---------------------------o|
----------------------------|--3-------------------------|
--3-------------------------|----------------------------|

                                                                                                               1x
--------2----------------------------0-------------------|
--------3---------3---3--------------1---------1---1-----|
-----2-----2--2h4---4---2---------0-----0--0h2---2---0---|
--0------------------------------------------------------|
-------------------------------3-------------------------|
---------------------------------------------------------|
[ Tab from: http://www.guitartabs.cc/tabs/p/presley_elvis/suspicious_minds_tab.html ]
                          2x                          4x                                                    2x                                                 
----------------------------|--------0-------------------|
--------0---------1---1-----|--------1---------1---1-----|
--------0------------------o|-----0-----0--0h2---2---0--o|
-----0-----0--0h2---2---0--o|---------------------------o|
----------------------------|--3-------------------------|
--3-------------------------|----------------------------|

                                                                                                               1x
--------2----------------------------0-------------------|
--------3---------3---3--------------1---------1---1-----|
-----2-----2--2h4---4---2---------0-----0--0h2---2---0---|
--0------------------------------------------------------|
-------------------------------3-------------------------|
---------------------------------------------------------|

Transition to Chorus:

D - C - Bm - D7

Chorus:

C-G-Bm-C-D
Em-Bm-C
D-D7

Repeat Verse, minus first measures

2nd Chorus:

C-G-Bm-C-D
Em-Bm-C
B7sus4-B7

Bridge:
Em-Bm-C-D
Em-Bm-C-D
G-C-G-D-D7

Repeat first verse and fade out
Comments