Presley Elvis - Polk Salad Annie Chords & Tabs

 

Polk Salad Annie Chords & Tabs

Presley Elvis Chords & Tabs

Version: 1 Type: Tab 0 ratings
1 star 2 stars 3 stars 4 stars 5 stars
comments

Polk Salad Annie Tab

   
##################################################################################
# This file is the author's own work and represents their interpretation of the  #
# song. You may only use this file for private study, scholarship, or research.  #
##################################################################################

Polk Salad Annie
----------------

Standard tuning.

Intro and verse:
(Bass arg. for guitar)
e||---------------------------------------------------------------------||
B||---------------------------------------------------------------------||
G||---------------------------------------------------------------------||
D||---------------------------------------------------------------------||
A||---------------------------------------------------------------------||
E||-0-0-0-0-0-0-0-0-0-0-0-0-0-0-0-0-0-0-0-0-0-0-0-0-0-0-0-0-0-0-0-0-0-0-||

e||---------------------------||
B||---------------------------||
G||---------------------------||
D||---------------------------||
A||---------------------------||
E||-0-0-0-0-0-0-0-0-0-0-0-0-0-||

[ Tab from: http://www.guitartabs.cc/tabs/p/presley_elvis/polk_salad_annie_tab.html ]
Intro and verse:
(Guitar 1:)
e||---------------------------------------------------------------------||
B||---------------------------------------------------------------------||
G||----4---------4/6---7---------7\6---4------------2-------1-----------||
D||--5h6---------6/7---9---------9\7---6----------6\4-----4\2-----------||
A||---------------------------------------------------------------------||
E||---------------------------------------------------------------------||

e||----------------------------||
B||----------------------------||    Play some variations during the verses
G||----------------------------||
D||---------0h2p0h2p0h2p0h2p0--||
A||--0h2-----------------------||
E||----------------------------||


(Intro riff, Bass and Guitar1)
Some of you all never been down South too much...
I' gonna tell you a little story, so you'll understand where I'm talking about
Down there we have a plant that grows out in the woods and the fields,
and it looks something like a turnip green.
Everybody calls it Polk salad. Now that's Polk salad.
Used to know a girl that lived down there and
she'd go out in the evenings to pick a mess of it...
Carry it home and cook it for supper, 'cause that's about all they had to eat,
But they did all right.

VERSES CHORDS: EAG
Comments