Presley Elvis - Love Me Tender Chords & Tabs

 

Love Me Tender Chords & Tabs

Presley Elvis Chords & Tabs

Version: 3 Type: Tab 0 ratings
1 star 2 stars 3 stars 4 stars 5 stars
comments

Love Me Tender Tab

Verse:
e---2---2---0---0---3---3---2---2-
H---3---3---3---3---2---2---3---3-
G---2---2---1---1---2---2---2---2-
D-0-----------------------0-------
A-----0---2-------0---0-------0---
E-------------0-------------------
 Play 2 Times
[ Tab from: http://www.guitartabs.cc/tabs/p/presley_elvis/love_me_tender_tab_ver_3.html ]
Chorus:
e---2---0---2---2---3---3---2---2---2---2---0---0---3---3---2---
H---3---2---3---1---0---3---3---3---3---0---3---3---2---2---3---
G---2---3---4---2---0-0-3---2---2---2---2---1---1---2---2---2---
D-0---------------------2-0---0---0-----1-2---------------0-----
A-----3---2---0-----------------------2-------2---0---0---------
E-----------------3---------------------------------------------
                                                          |   |
The last Chorus play:                                      \ /
e-------2-                                                  |
H-----3---                                                  |
G---2----- instead of:-------------------------------------/
D-0-------
A---------
E---------
Comments