Presley Elvis - In The Ghetto Chords & Tabs

 

In The Ghetto Chords & Tabs

Presley Elvis Chords & Tabs

Version: 1 Type: Tab 0 ratings
1 star 2 stars 3 stars 4 stars 5 stars
comments

In The Ghetto Tab

   
rythm 1 2 3 4 (slow)
intro lick
|------------------------------|
|--------2----2h3--2h3----3----|
|--------2----2h4--2h4----4----|
|-----2-----------------2------|
|--0-------0-------------------|
|------------------------------|
[ Tab from: http://www.guitartabs.cc/tabs/p/presley_elvis/in_the_ghetto_tab.html ]
|------------------------------|
|--------2----2h3---3--2-------|
|--------2----2h4---4--2-------|
|-----2-----------2----2-------|
|--0-------0-------------------|
|------------------------------|

verse  A A Cism D/E A A repeat
chorus  E D/A D/E A E D/A D/Cism bm/E

Cism 456644

any comments, pleasy mail whizp@wp.pl
Comments