Presley Elvis - Heartbreak Hotel Chords & Tabs

 

Heartbreak Hotel Chords & Tabs

Presley Elvis Chords & Tabs

Version: 1 Type: Tab 0 ratings
1 star 2 stars 3 stars 4 stars 5 stars
comments

Heartbreak Hotel Tab

   
##################################################################################
# This file is the author's own work and represents their interpretation of the  #
# song. You may only use this file for private study, scholarship, or research.  #
##################################################################################

***************************************************************************
Heartbreak Hotel
by Elvis Aaron Presley
***************************************************************************

Transcribed by Soenen Martijn (martijnsoenen@hotmail.com) 13:43 09/02/2002

NOTES: This a very cool song to play on your acoustic guitar. Only the solo
       is approximate. You can also use the eventual riff to make a break between
       two verses. The "u" and "d" mean "up" and "down".

CHORDS used in this song:

        EADGBE

E022100
A7x02020
B7021202
E7022130

Riff 1:      
      u  d

e |---------------------------0--0--x--|
B |---------------------------0--0--x--|
G |---------------------------1--1--x--|
D |---------------------------2--2--x--|
A |---------------------------2--2--x--|
E |------------------------------------|

Eventual Riff 2:

e |--------------------------|--------------------------|
A |--------------------------|--------------------------|
G |--------------------------|--------------------------|
D |--------------2--2--4--2--|--------------2--2--4--2--|
A |--0--0--4--4--------------|--0--0--4--4--------------|
E |--------------------------|--------------------------|

e |--------------------------|--------------------------|
A |--------------------------|--------------------------|
G |--------------------------|--------------------------|
D |--------------------------|--------------------------|
A |-------------2--2--4--2---|--------------2--2--4--2--|
E |--0--0--4--4--------------|--0--0--4--4--------------|

e |--------------------------|--------------------------|
A |--------------------------|--------------------------|
G |--------------------------|--------------------------|
D |--------------4--4--6--6--|--------------4--4--6--6--|
A |--2--2--6--6--------------|--2--2--6--6--------------|
E |--------------------------|--------------------------|

e |--------------------------|--------------------------|
A |--------------------------|--------------------------|
G |--------------------------|--------------------------|
D |--------------2--2--4--2--|--------------2--2--4--2--|
A |--0--0--4--4--------------|--0--0--4--4--------------|
E |--------------------------|--------------------------|

[ Tab from: http://www.guitartabs.cc/tabs/p/presley_elvis/heartbreak_hotel_tab.html ]
Solo:
e |--12--12--12--12----------12\-----|--12--12--12--12----------------|
B |-(12)(12)(12)(12)(12)-15----------|-(12)(12)(12)(12)(12)-15\-------|
G |----------------------------------|--------------------------------|
D |----------------------------------|--------------------------------|
A |----------------------------------|--------------------------------|
E |----------------------------------|--------------------------------|

e |--12--12--12--12--12--12--12--12--12--12--12--12--|
B |--14--15--15--15--15--15--15--15--15--15--15--15--|
G |--------------------------------------------------|
D |--------------------------------------------------|
A |--------------------------------------------------|
E |--------------------------------------------------|


Outro:             F  E

e |--------------------------|------------2--5--4---||
B |--------------------------|------------0--5--4---||
G |--------------------------|------------2--5--4---||
D |--------------------------|------------1--3--2---||
A |--2--2--0--0--------------|-----0--1---2---------||
E |--------------4--4--2--2--|--0-------------------||


***********************************************************************************
#   More Tabs At:       http://members.fortunecity.com/dmedm/gitaar/guitar.htm    #
***********************************************************************************



##################################################################################
# This file is the author's own work and represents their interpretation of the  #
# song. You may only use this file for private study, scholarship, or research.  #
##################################################################################

Blue Christmas ('68 comeback special version)
---------------------------------------------


Standard tuning.

    Riff 1:               Riff 2:               Riff 3:
    e||------------||     e||-----------||      e||-----------------||
    B||------------||     B||-----------||      B||-----------------||
    G||------------||     G||-----------||      G||-----------------||
    D||------------||     D||-----------||      D||-----------------||
    A||--0---1--2--||     A||-----------||      A||---s----s----s---||
    E||------------||     E||--5--4--3--||      E||--2/3--2/3--2/3--||


That's all folks!

Chords: E B7 E7 A F# 
--------------------


*****************************************************************************************************

*****************************************************************************************************
Comments