Presley Elvis - Cant Help Falling In Love Chords & Tabs

 

Cant Help Falling In Love Chords & Tabs

Presley Elvis Chords & Tabs

Version: 1 Type: Tab 0 ratings
1 star 2 stars 3 stars 4 stars 5 stars
comments

Cant Help Falling In Love Tab

##################################################################################
# This file is the author's own work and represents their interpretation of the  #
# song. You may only use this file for private study, scholarship, or research.  #
##################################################################################

Elvis Presley - Can't help falling in love

III - Barre on 3rd fret

Capo 2



Intro:
           III
|-----0-------------------0---3-0----|
|----1-1------3-------1----1------1--|
|---0---0----4-4-----0-0----0--------|
|-----------5---5---2---2------------|
|--3---------------3-----------------|
|----------3-------------------------|

Verse1:
           III                   I             III   
|-----0---------------0------0------1------0------------------|
|----1-1------3------1-1----1-1----1-1----1-1-----3------3----|
|---0---0----4-4----0---0--0---0--2---2--0---0---4-4----4-4---|
|-----------5---5-------------------------------5---5--5---5--|
|--3---------------3------3-------------3---------------------|
|----------3---------------------1-------------3------3-------|

Verse2:
[ Tab from: http://www.guitartabs.cc/tabs/p/presley_elvis/cant_help_falling_in_love_tab.html ]
|-------------------0-------1------0-----------------0---3-0----|
|-----1------3-----1-1-----3-3----1-1-----3------1----1------1--|
|----2-2----4-4---2---2---2---2--0---0---4-4----0-0----0--------|
|---3---3--5---5--------0---------------5---5--2---2------------|
|----------------0--------------3-------------3-----------------|
|--1------3----------------------------3------------------------|

verse3:

|-------------------0-------1------0--------------0-------0----|
|-----1------3-----1-1-----3-3----1-1-----3------1-1-----1-1---|
|----2-2----4-4---2---2---2---2--0---0---4-4----0---0---0---0--|
|---3---3--5---5--------0---------------5---5------------------|
|----------------0--------------3-------------3-------3--------|
|--1------3----------------------------3-----------------------|


Bridge:

|-------------------|         |--------------------1-----------|
|------0-------1----|         |-----0-------2-----3-3-----3----|
|-----0-0-----2-2---|         |----0-0-----0-0---2---1---4-4---|
|----2---2---2---2--| x3      |---2---2---2---2-0-------5---5--|
|-----------0-------|         |----------0---------------------|
|--0----------------|         |--0---------------------3-------|

End:

|--0--|
|--1--|
|--0--|
|--2--|
|--3--|
|-----|



 -
                  \
             --___!________\     Elad Matari Tabs
             --   !        /
                  /              eladmat@walla.co.il
                 -
Comments