Presley Elvis - Burning Love Chords & Tabs

 

Burning Love Chords & Tabs

Presley Elvis Chords & Tabs

Version: 1 Type: Tab 1 rating
1 star 2 stars 3 stars 4 stars 5 stars
comments

Burning Love Tab

Burning Love 
by Elvis Presley
From Lilo & Stitch

Transcribed by: Louise

Intro:		
e:----------------------------------|----------------------------------|
B:----------------------------------|----------------------------------|
G:------------3---------------------|--0-----3---3---0----3---3--------|
D:------------4---------------------|--------6---4--------6---4--------|
A:------------4---------------------|--------4---4--------4---4--------|
E:----------------------------------|----------------------------------|

e:----------------------------------|----------------------------------|
B:-------------4--------------------|----------------------------------|
G:---0------------------------------|----------------------------------|
D:-------------5--------------------|----------------------------------|
A:-------------6--------------------|----------------------------------|
E:----------------------------------|-------------2--------------------|

e:----------------------------------|----------------------------------|
B:----------------------------------|----------------------------------|
G:--1~~~~~~~~~~~~~~~~~~~~~~~~~~~----|----------------------------------|
D:----------------------------------|----------------------------------|
A:----------------------------------|----------------------------------|
E:--3----4---2---3---------4---2----|-----3~~~~~~~~~-------2-----------|

e:----------------------------------|----------------------------------|
B:----------------------------------|----------------------------------|
G:----------------------------------|----------------------------------|
D:--1~~~~~~~~~~~~~~~~~~-------------|----------------------------------|
A:--1~~~~~~~~~~~~~~~~~~-------------|----------------------------------|
E:--3-----4----2----3-------4---2---|-----3~~~~~~~~~~-------2----------| 

e:----------------------------------|----------------------------------|
B:----------------------------------|----------------------------------|
G:----------------------------------|----------------------------------|
D:--1~~~~~~~~~~~~~~~~~~-------------|-------------------1-1-1-1--------|
A:--1~~~~~~~~~~~~~~~~~~-------------|-------------------1-1-1-1--------|
E:--3-----4----2----3-------4---2---|-----3----------------------------|

Verses 1&2
e:----------------------------------|----------------------------------|
B:----------------------------------|----------------------------------|
G:---4-----4----3------1----1-------|----------------------------------|
D:----------------------------------|-----1---1---3------1---1--1------|
A:----------------------------------|--3------3--------------1---------|
E:---3-----4----------------4-------|----------------------------------| 
     Lord  almighty...			

e:----------------------------------|----------------------------------|
B:----------------------------------|----------------------------------|
G:--------------------3-------------|---------3--------------3---------|
D:-------1------------1-------------|---------1--------------1---------|
A:---1---3---1--1--1--3--1----------|--1---1--3--1--1--1-----3---------|
E:----------------------------------|----------------------------------|   

e:----------------------------------|----------------------------------|
B:----------------------------------|----------------------------------|
G:----------------------------------|----------------------------------|
D:---4----4----4---3----1-----------|------1----1---3-----1---1---1----|
A:----------------------------------|--3--------3-------------1--------|
E:---3---------4-------------4------|----------------------------------|       
	higher and higher...

e:----------------------------------|----------------------------------|
B:----------------------------------|----------------------------------|
G:----------------------------------|----------------------------------|
D:----------1----1---------1---1----|-------1---1----------4-----------|
A:---3---1--------------------------|----------------------------------|
E:----------4----2----3----4---2----|---3---4---2---3------3-----------| 

e:----------------------------------|----------------------------------|
B:----------------------------------|----------------------------------|
G:---0------------------------------|----------------------------------|
D:----------3-----1----1------------|-------1---1---3---1---1---1------|
A:---------------------------3------|---3-------3-----------1----------|
E:----------------------------------|----------------------------------| 
	baby baby baby...

e:----------------------------------|----------------------------------|
B:----------------------------------|----------------------------------|
G:----------------------------------|----------------------------------|
D:--------1----1---------1----1-----|--1~~~~~~~~~~~~-1-------1---------|
A:----1-----------------------------|------------------------------1---|
E:--------4----2----3----4----2-----|--3-----4---2---3-------4---------| 

e:----------------------------------|----------------------------------|
B:----------------------------------|----------------------------------|
G:---3------------------------------|----------------------------------|
D:--------4---4----3----1-----------|------1---1----3-------1---1---1--|
A:---1-------------------------1----|---3------3----------------1------|
E:--------6---6---------------------|----------------------------------| 
	my brain is flaming...

e:----------------------------------|----------------------------------|
B:----------------------------------|----------------------------------|
G:----------------------------------|----------------------------------|
D:-----1--------1------1------------|--------1-------------------------|
A:-----1--------1-------------------|--------1--------3------1---------|
E:----------------------------------|----------------------------------| 
	oh, oh, yeah

Chorus 1&2:
e:----------------------------------|----------------------------------|
B:----------------------------------|----------------------------------|
G:-----0------0---------------------|----------------------------------|
D:------------------3---3---3-------|---------1------------------------|
A:------------------5------3--------|----3------------3----1-----------|
E:------------------6------4--------|----4-----------------------------| 
	but your kisses..

e:----------------------------------|----------------------------------|
B:----------------------------------|----------------------------------|
G:----0-----0-----------------------|-----1----------------------------|
D:----1----------3-----3-----3------|----------------------------------|
A:----3----------5-----------3------|-------------------------1--------|
E:----3----------6-----------4------|----------------------------------| 

e:----------------------------------|----------------------------------|
B:----------------------------------|----------------------------------|
G:---0------0-----------0-----------|----------------------------------|
D:---1------1----3-------------1----|---------------1-------1----------|
A:---3------3----5-------------3----|----------3----3-------1----------|
E:---3------3----6-------------4----|-----4----4----4-------2----------| 
	light my morning sky...

e:----------------------------------|----------------------------------|
B:------------------4---------------|----------------------------------|
G:------------3-----3---------------|----------------------------------|
D:---1--------1-----1---------------|--------------------1-------------|
A:---1------------------------------|----------------------------------|
E:---3------------------------------|----------------------------------| 

Solo:

e:----------------------------------|----------------------------------|
B:----------4-----------------------|----1-----1-----1-----------------|
G:----------------------------------|----0----------------3----0---3---|
D:----------5-----------------------|----1-----------3-----------------|
A:----------6-----------------------|----------------5-------------3---|
E:----------------------------------|------------------------------4---| 

e:----------------------------------|----------------------------------|
B:-------1--------------------------|----1----4----1-------------------|
G:---------------------3------------|-------------------3---0-------0--|
D:----------------------------------|----1------------------0----3-----|
A:----------------------------------|-----------------------1----------|
E:----------------------------------|----------------------------------| 

e:-----------------------------1----|--3--3--3--3--3---1--------3------|
B:-------------------1----4---------|--4--4--4--4--3------4-----1------|
G:----------------------------------|---------------------------0------|
D:-----1-----------------------3----|--5--5--5--5--5-------------------|
A:-----3------3------3----6---------|----------------------------------|
E:-----4----------------------------|----------------------------------| 

e:----------------------------------|----------------------------------|
B:---------------------1------------|-----------------4----------------|
G:----1------2------3---------------|----------------------------------|
D:-------------------------1----1---|--1--------------5----------------|
A:---------------------3--------1---|--1--------------6----------------|
E:----------------------------------|----------------------------------| 
[ Tab from: http://www.guitartabs.cc/tabs/p/presley_elvis/burning_love_tab.html ]
Coda:
e:----------------------------------|----------------------------------|
B:----------------------------------|----------------------------------|
G:----------------------------------|----------------------------------|
D:---1---1---1---1---1---1---1------|---4------4------4-----1----------|
A:---4---3---1---0------------------|---1~-----------------------------|
E:-----------------------4-2-3------|------------------------------4---|
	i't's coming close...

e:----------------------------------|----------------------------------|
B:----------------------------------|----------------------------------|
G:----------------------------------|----------------------------------|
D:------1---1---3-----1---1---1-----|-------1-----1-----1--------------|
A:---3------------------------------|---1------------------------------|
E:----------------------------------|-------4-----3-----4--------------|

e:----------------------------------|----------------------------------|
B:----------------------------------|----------------------------------|
G:----------------------------------|----------------------------------|
D:-----1------1------1-------1------|----4-----4----3-----1------------|
A:----------------------------------|---------------------------1------|
E:-----3------4------3-------4------|----3-----4-----------------------|
					Lord have mercy...

e:----------------------------------|----------------------------------|
B:----------------------------------|----------------------------------|
G:----------------------------------|----------------------------------|
D:--------1---1---3-----1---1---4---|-----3---1--------1---1-----------|
A:----3-------3-------------1-------|----------------------------------|
E:------------------------------6---|-----4---2---3----4---2-----------|

e:----------------------------------|----------------------------------|
B:----------------------------------|----------------------------------|
G:----------------------------------|----------------------------------|
D:----------1----1-----------1------|----4----4----4---1-------1-------|
A:----------------------------------|----------------------------------|
E:-----3----4----2----3------4------|----3---------3-----------4-------|
					It's hard to breathe...

e:----------------------------------|----------------------------------|
B:----------------------------------|----------------------------------|
G:----------------------------------|----------------------------------|
D:---1-----1---3----1----1----------|----1----------------1----1-------|
A:-------------1----------------3---|----1----3----1-------------------|
E:---4---4--------------------------|----3----4-----------4----2-------|

e:----------------------------------|----------------------------------|
B:----------------------------------|----------------------------------|
G:----------------------------------|---1---3--------------------------|
D:---------1----1-----------1-------|---1--------4----3----1----1------|
A:----------------------------------|---1------------------------------|
E:----3----4----2----3------4-------|------------6--------------4------|
					Lord almercy...

e:----------------------------------|----------------------------------|
B:----------------------------------|----------------------------------|
G:------------------3-----0---0-----|-----------0------1---------------|
D:--------1----1----3-------------3-|----1------1------3---------------|
A:----3-------------1---------------|-----------1------3---------------|
E:----4-----------------------------|----------------------------------|

Chorus 3:
e:----------------------------------|----------------------------------|
B:----------------------------------|----------------------------------|
G:-----3----------------------------|-----0-----0----------------------|
D:-----5----------------------------|-----1~---------3----3----3-------|
A:-----6----------3------1----------|-----3~---------5---------3~------|
E:-----6----------------------------|-----3~---------6---------4~------|
	but your...
e:----------------------------------|----------------------------------|
B:----------------------------------|----------------------------------|
G:----------------------------------|----0-----0-----------------------|
D:----------1-----------------------|----1~--------3----3----3---------|
A:-----3~-----------3------1--------|----3~--------5---------3~--------|
E:-----4~---------------------------|----3~--------6---------4~--------|
					Sweet song...

e:----------------------------------|----------------------------------|
B:----------------------------------|----------------------------------|
G:----------------------------------|----0----0-----------0------------|
D:----------1-----------------------|----1----1----3-----------1-------|
A:-----3---------------1------------|----3----3----5-----------3-------|
E:-----4----------------------------|----3----3----6-----------4-------|

e:----------------------------------|----------------------------------|
B:----------------------------------|----------------------------------|
G:----------------------------------|----------0~----------------------|
D:------------------------1-----1---|---1----------------1-----1-------|
A:------------------3-----3-----1---|---1------1----3------------------|
E:------------4-----4-----4-----2---|---3------------------------------|
	With burning love...

e:----------------------------------|----------------------------------|
B:----------------------------------|----------------------------------|
G:--------------------1---1----3----|----0-----------------------------|
D:---------------1----1---1---------|---------1---------1----1---------|
A:--------------------1---1----1----|--------------3-------------------|
E:----------------------------------|--------------3-------------------|

e:----------------------------------|----------------------------------|
B:----------------------------------|----------------------------------|
G:--0-------------------------------|----------------------------------|
D:----------------------------------|----1--------1------1----1----3---|
A:--4-----3-----1-----1----3----1---|----1----3---1---3------------3---|
E:----------------------------------|------------------------------4---|
	I'm just a hunk a hunk of burning love...

e:----------------------------------|----------------------------------|
B:----------------------------------|----------------------------------|
G:----------------------------------|----------------------------------|
D:----3-----------------------------|----1-------1-------1---1----1----|
A:----3-------1-----3-----1---------|----1---3---1----3-----------3----|
E:----4-----------------------------|-----------------------------4----|

e:----------------------------------|----------------------------------|
B:----------------------------------|----------------------------------|
G:----------------------------------|----------------------------------|
D:-----1----------------------------|----1-------1------1--1----3------|
A:-----3---------1-----3----1-------|----1---3---1---3--1--1----3------|
E:-----4----------------------------|----3-------3------3--3----4------|

e:----------------------------------|----------------------------------|
B:----------------------------------|----------------------------------|
G:----------------------------------|----------------------------------|
D:----------------------------------|----1-------1-------1---1---------|
A:---------------------1----3----1--|----1---3---1---3---1---1-----3---|
E:----------------------------------|----3-------3-------3---3-----4---|

e:----------------------------------|----------------------------------|
B:----------------------------------|----------------------------------|
G:----------------------------------|----------------------------------|
D:----------------------------------|----1-------1-------1---1-----3---|
A:---------------------1----3----1--|----1---3---1---3---1---1-----3---|
E:----------------------------------|----3-------3-------3---3-----4---|

e:----------------------------------|----------------------------------|
B:----------------------------------|----------------------------------|
G:--------------------------1-------|----------------------------------|
D:---------------------4--------4---|----1-------1-------1---1-----3---|
A:----------------------------------|----1---3---1---3---1---1-----3---|
E:---------------------2----4---2---|----3-------3-------3---3-----4---|

e:----------------------------------|----------------------------------|
B:--------------2-------------------|----------------------------------|
G:--------3-----3-----------1-------|---1------1------3----3----3----3-|
D:--------1-----1-----4---------4---|---1---4--1---4--5----5----5----5-|
A:--------------------6-------------|---1------1------5----5----5------|
E:----------------------------------|----------------------------------|

e:----------------------------------|----------------------------------|
B:----------------------------------|----------------------------------|
G:-----1----1----1------------------|--------------------3---3---3---3-|
D:-----4----4----4------------------|----1-------1-------5---5---5---5-|
A:-----6----6----6---1----3----1----|----1---3---1---3---4---4---4---4-|
E:-----8----8----8------------------|----3-------3---------------------|

e:----------------------------------|----------------------------------|
B:----------------------------------|----------------------------------|
G:-----1----1----1------------------|----------------------------------|
D:-----4----4----4------------------|----1-------1-------1----1--------|
A:-----6----6----6---1----3----1----|----1---3---1---3-----------------|
E:-----8----8----8------------------|----------------------------------|

e:----------------------------------|----------------------------------|
B:----------------------------------|----------------------------------|
G:---------1---3-1------------------|----------------------------------|
D:----1--4---4-----4-1-4-4-1--------|---------------------------1~-----|
A:-3~--------------------------4-1--|--4---1--------------------1~-----|
E:----------------------------------|----------4--2--4--2--------------|
		I'm just a hunk a hunk of burning love!

Comments