Presidents Of The Usa - Video Killed The Radio Star Chords & Tabs

 

Video Killed The Radio Star Chords & Tabs

Presidents Of The Usa Chords & Tabs

Version: 4 Type: Tab 0 ratings
1 star 2 stars 3 stars 4 stars 5 stars
comments

Video Killed The Radio Star Tab

Tabbed by the captain (Danny Burton)
h-hammer ons
p-pull offs
.-Palm Mute

Standard Tuning: EADGBe

intro
|---------------|
|---------------|
|---------------|
|6-6-6-6-6-6-6-6|
|4-4-4-4-4-4-4-4|
|---------------|
 . . . . . . . .
verse
|-------------------------------|
|-------------------------------|
|----------------6-6-6-6-8-8-8-8|
|6-6-6-6-8-8-8-8-4-4-4-4-6-6-6-6|
|4-4-4-4-6-6-6-6----------------|
|-------------------------------|
 . . . . . . . . . . . . . . . .
pre-chorus
|-------------------------------|
|-------------------------------|
|5-5-5-5-6-6-6-6-8-8-8-8-8-8-8-8|
|3-3-3-3-4-4-4-4-6-6-6-6-6-6-6-6|
|-------------------------------|
|-------------------------------|
 . . . . . . . . . . . . . . . .
chorus
|-------------------------------|
|-------------------------------|
|6-6-6-6-6-6-6-6----------------|
|6-6-6-6-6-6-6-6-4-4-4-4-4-4-4-4|
|4-4-4-4-4-4-4-4-4-4-4-4-4-4-4-4|
|----------------2-2-2-2-2-2-2-2|
[ Tab from: http://www.guitartabs.cc/tabs/p/presidents_of_the_usa/video_killed_the_radio_star_tab_ver_4.html ]
post-chorus(part 1)
|-------------------------------|
|-------------------------------|
|-------------------------------|
|-------------------------------|
|4-4-4-4-3-3-3-3-1-1-1-1-1-1-1-1|
|-------------------------------|
 . . . . . . . . . . . .
post-chorus(part 2)
|------|
|------|
|------|
|6--6-8|
|6--6-8|
|4--4-6|

solo
|-------------------------------------------------|
|-------------------------------------------------|
|----3---------------------3----------------------|
|--3---6-4---3-4-6-------3---6-4---3-4-3-4-3-4-3-4|
|4---------4-------4---4---------4----------------|
|-------------------------------------------------|

|-----------------------------------------------|
|-----------------------------------------------|
|----3-----------------------3------------------|
|--3---6-4---3-4-6-------3-4-----3-4-6---3-4-6-4|
|4---------4-------4---4-------4-------4--------|
|-----------------------------------------------|

Bridge
|-------------|
|-------------|
|8-10-6-10-6-8|
|8-10-6-10-6-8|
|6-8--4-8--4-6|
|-------------|

Song Structure:
Intro 2x
Verse 2x
Pre-Chorus 2x
Verse 2X
Pre-Chorus 3x
Chorus 2x
Post-Chorus(Part 1)2x
Post-Chorus(Part 2)2x
Verse 2x
Pre-Chorus 3x
Chorus 2x
Post-Chorus(Part 1)2x
Post-Chorus(Part 2)2x
Solo
Bridge
Chorus 2x
Post-Chorus(Part 1)4x
High Pitched Voice Thingy
Chorus 8x
Bridge (Let Ring)

THERE IT IS!
This is my first tab so don't be critical of my work!

Peace

-Danny "The Captain" Burton
Comments