Presidents Of The Usa - Video Killed The Radio Star Chords & Tabs

 

Video Killed The Radio Star Chords & Tabs

Presidents Of The Usa Chords & Tabs

Version: 2 Type: Bass Tab 0 ratings
1 star 2 stars 3 stars 4 stars 5 stars
comments

Video Killed The Radio Star Bass Tab

intro

|-----------------|    |
|-----------------| 4x |
|-4-4-4-4-4-4-4-4-|    |
|-----------------|    |

verse

|---------------------------------|    |
|-----------------4-4-4-4-6-6-6-6-| 2x |
|-4-4-4-4-6-6-6-6-----------------|    |
|---------------------------------|    |

pre-chorus

|---------------------------------|    |
|-3-3-3-3-4-4-4-4-6-6-6-6-6-6-6-6-| 2x |
|---------------------------------|    |
|---------------------------------|    |

verse

|---------------------------------|    |
|-----------------4-4-4-4-6-6-6-6-| 2x |
|-4-4-4-4-6-6-6-6-----------------|    |
|---------------------------------|    |

pre-chorus

|---------------------------------|    |
|-3-3-3-3-4-4-4-4-6-6-6-6-6-6-6-6-| 3x |
|---------------------------------|    |
|---------------------------------|    |

chorus

|---------------------------------|    |
|---------------------------------| 2x |
|-4-4-4-4-4-4-4-4-----------------|    |
|-----------------2-2-2-2-2-2-2-2-|    |

post-chorus (part 1)

|---------------------------------|    |
|---------------------------------| 2x |
|-4-4-4-4-3-3-3-3-1-1-1-1-1-1-1-1-|    |
|---------------------------------|    |

post-chorus (part 2)

|--------|    |
|--------| 2x |
|--------|    |
|-4--4-6-|    |

verse

|---------------------------------|    |
|-----------------4-4-4-4-6-6-6-6-| 2x |
|-4-4-4-4-6-6-6-6-----------------|    |
|---------------------------------|    |

pre-chorus
[ Tab from: http://www.guitartabs.cc/tabs/p/presidents_of_the_usa/video_killed_the_radio_star_btab_ver_2.html ]
|---------------------------------|    |
|-3-3-3-3-4-4-4-4-6-6-6-6-6-6-6-6-| 3x |
|---------------------------------|    |
|---------------------------------|    |

chorus

|---------------------------------|    |
|---------------------------------| 2x |
|-4-4-4-4-4-4-4-4-----------------|    |
|-----------------2-2-2-2-2-2-2-2-|    |

post-chorus (part 1)

|---------------------------------|    |
|---------------------------------| 2x |
|-4-4-4-4-3-3-3-3-1-1-1-1-1-1-1-1-|    |
|---------------------------------|    |

post-chorus (part 2)

|--------|    |
|--------| 2x |
|--------|    |
|-4--4-6-|    |

solo

|---------------------------------|    |
|---------------------------------| 3x |
|-4-4-4-4-4-4-4-4-----------------|    |
|-----------------2-2-2-2-2-2-2-2-|    |

*NOTE: After thrid time rest for one bar

Bridge

|-------------|
|-------------|
|6-8--4-8--4-6|
|-------------|

chorus

|---------------------------------|    |
|---------------------------------| 2x |
|-4-4-4-4-4-4-4-4-----------------|    |
|-----------------2-2-2-2-2-2-2-2-|    |

post-chorus (part 1)

|---------------------------------|    |
|---------------------------------| 4x |
|-4-4-4-4-3-3-3-3-1-1-1-1-1-1-1-1-|    |
|---------------------------------|    |

*NOTE: After forth time rest for four bars




chorus

|---------------------------------|    |
|---------------------------------| 8x |
|-4-4-4-4-4-4-4-4-----------------|    |
|-----------------2-2-2-2-2-2-2-2-|    |

Bridge

|-------------|
|-------------|
|6-8--4-8--4-6|
|-------------|
Comments