Presidents Of The Usa - Tiki Lounge God Chords & Tabs

 

Tiki Lounge God Chords & Tabs

Presidents Of The Usa Chords & Tabs

Version: 1 Type: Tab 0 ratings
1 star 2 stars 3 stars 4 stars 5 stars
comments

Tiki Lounge God Tab

   
|----------------------------|
|PRESIDENTS OF THE USA       |  
|TIKI LOUNGE GOD             |   
|FROM THE CD "PURE FROSTING" | 
|----------------------------|

PLEASE RATE MY TAB AND GIVE ME CREDIT IF YOU USE OR MODIFY THIS TAB, BECAUSE 
I WORKED HARD FOR IT. WRITE ME AN EMAIL IF YOU'VE GOT CORRECTIONS OR IF YOU 
WANT ME TO TAB OUT YOUR FAVOURITE PRESIDENTS SONGS (It will take about a week). 
ENJOY IT! EMAIL ADRESS: kalogirou@sbsd.de


standart presidents tuning:

Db
Ab
Db

Use this tuning in EVERY presidents song!!!
so here it goes:

RIFF A

Db|-----0------0-------0------0-0---------------|
Ab|---------------------------------------------|
Db|--00---0-55----5-33----3-5-------------------|

        I had a girl and she did me wrong ....


RIFF A ENDING

Db|--12-15-15-12-15-15-12-----------------------|
Ab|---------------------------------------------|
Db|---------------------------------------------|


RIFFB

Db|---------------------------------------------|
Ab|--12--12-11-10----12--12-13-14-15------------|
Db|--12--12-11-10----12--12-13-14-15------------|

	I got a Tiki god....


RIFF B ENDING

Db|-----------------10-12-10-12\\---------------|
Ab|--------12-10-12-----------------------------|
Db|--12-12--------------------------------------|


repeat RIFF A (na-nananana-na) with this adition:

Db|--19-17----------17(19)--19-17---------------|
Ab|--------20-17-20---------------20-17-20-20~--|
Db|---------------------------------------------|


the first high tone you can hear is

Db|--19~-| ....upper commotion.... 
Ab|------|
Db|------|

the second is (you need 4 strings on your guitar here ;))

 G|--21--| ....when the tiki found bobby.... 
Db|------|
Ab|------|
Db|------|

When they do this part the second time there are some fill ins:
[ Tab from: http://www.guitartabs.cc/tabs/p/presidents_of_the_usa/tiki_lounge_god_tab.html ]
Db|--------------|
Ab|--------------|
Db|--9-10-11-12--|


RIFF C (THE END)
Db|-----------------10-12-10----|
Ab|--------12-10-12----------12-|
Db|--12-12----------------------|

Db|--------12-10-12-15-17-15----|
Ab|--10-10-------------------17-|
Db|-----------------------------|

Db|--------17-15-17-20-22-20----|
Ab|--15-15-------------------22-|
Db|-----------------------------|

Db|---12---11~~--|
Ab|---12---11~~--|
Db|--(12)-(11)~--|

Listen to the song to get the right feeling!

|---------|
|LYRICS   |
|---------|

Hey!

Had a girl and she did me wrong
I didn't let that kinda shit go on too long
Split the clouds and divided the sea
Showed that evil girl how nasty the tiki god could be
She didn't call no more nor bother me
My little tiki god made sure I'd live in peace
One day I read they found a body in the river
Tiki God, why you make me shake, you make me shiver, all right

I got a Tiki God... saves me... I got a Tiki God

Yeah!
Bobby Brady found the idol in the rubble
Had no idea it would cause so much trouble
When Greg tried to throw it back in the ocean
There was a rumble, an awful commotion
Don't ask me how, but the tiki found Bobby
He thought the idol was some Hawaiian hobby
Turned out the god was mean and vicious
Didn't respond to Bobby's 3 wishes

He had a Tiki God... saves him... He had a Tiki God

Na na na na na na
Na na na na na na
Na na na na na na
Na na na na na na
Na na na na na na
Na na na na na na
Na na na na na na
Na na na na na na

So when you're caught up in an evil plot
Your life's in danger and you can hear the shot
Your head is spinning and your fading fast
How long do you think this kinda fun can last
Your luck will change with a simple motion
I found my idol in a bottle in the ocean
He splits the clouds and divides the sea
And shows those evil guys how nasty those tiki gods can be, all right

He had a Tiki God... saves him... He had a Tiki God
Yeah
Yeah
All right
Comments