Presidents Of The Usa - Stranger Chords & Tabs

 

Stranger Chords & Tabs

Presidents Of The Usa Chords & Tabs

Version: 1 Type: Tab 0 ratings
1 star 2 stars 3 stars 4 stars 5 stars
comments

Stranger Tab

   
Song: Stranger
Artist: Presidents of the USA
Album: Self-titled first album
Tabbed by: Justin Huff

Three-stringed guit-bass tuned to (low to high): 
Db, Ab, Db.

And from what I can tell a normal guitar tuned (low to high):
Db, Ab, Db, Gb, Bb, eb. 

Intro

Guitar 1

eb|-----------------------------------------------------|
Bb|---8---8----7--------8----7-----------8---7--------8-|
Gb|-----------------------------------------------------|
Db|-9---9----7---7-7s9-----7---7-7s9--9----7---7-7s9----|
Ab|-----------------------------------------------------|
Db|-----------------------------------------------------|

1

eb|---------------------------------|--------------------------------|
Bb|----8-----7--------8----7--------|----8-----7--------8----7-------|
Gb|---------------------------------|--------------------------------|
Db|-9----9-7---7-7s9-----7---7-7s9--|-9----9-7---7-7s9-----7---7-7s9-|
Ab|---------------------------------|--------------------------------|
Db|---------------------------------|--------------------------------|

Guitar 2

Db|---------------------------------|----0-------------0-------------|
Ab|---------------------------------|--------------------------------|
Db|-0----5-4-5-4--0----5----7-------|-0----5-4-5-4--0-----5----7-----|


Verse

1

eb|---------------------------------|--------------------------------|
Bb|----8-----7--------8----7--------|----8-----7--------8----7-------|
Gb|---------------------------------|--------------------------------|
Db|-9----9-7---7-7s9-----7---7-7s9--|-9----9-7---7-7s9-----7---7-7s9-|
Ab|---------------------------------|--------------------------------|
Db|---------------------------------|--------------------------------|

2

Db|---------------------------------|--------------------------------|
Ab|---------------------------------|--------------------------------|
Db|-0----5-4-5-4--0----5----7-------|-0----5-4-5-4--0-----5----7-----|






[ Tab from: http://www.guitartabs.cc/tabs/p/presidents_of_the_usa/stranger_tab.html ]
Chorus		  ________________  ________________________________ 
			  |1.	              |2.
Db|-8-8-8-8-8-8-8-8--5-5-5-5-5-5-5-5-:|-5-rest-3--------8-rest-3------|
Ab|-8-8-8-8-8-8-8-8--5-5-5-5-5-5-5-5-:|-5-rest-3--------8-rest-3------|
Db|-8-8-8-8-8-8-8-8--5-5-5-5-5-5-5-5-:|-5-rest-3--------8-rest-3------|



Verse 2

1

eb|---------------------------------|--------------------------------|
Bb|----8-----7--------8----7--------|----8-----7--------8----7-------|
Gb|---------------------------------|--------------------------------|
Db|-9----9-7---7-7s9-----7---7-7s9--|-9----9-7---7-7s9-----7---7-7s9-|
Ab|---------------------------------|--------------------------------|
Db|---------------------------------|--------------------------------|

2

Db|--(0)----------------------------|--(0)------------(0)------------|
Ab|---------------------------------|--------------------------------|
Db|-0----5-4-5-4--0----5----7-------|-0----5-4-5-4--0-----5----7-----|


Little diddly at the end of the second verse

Db|------11b12r11--9--7--9--7-----------|
Ab|----------------------------9---7--7-|
Db|-0-----------------------------------|

Second Chorus/Outro

Db|-8-8-8-8-8-8-8-8--5-5-5-5-5-5-5-5-|
Ab|-8-8-8-8-8-8-8-8--5-5-5-5-5-5-5-5-|
Db|-8-8-8-8-8-8-8-8--5-5-5-5-5-5-5-5-|

Play until

Db|-5-rest-3---------8-rest-3--------|
Ab|-5-rest-3---------8-rest-3--------|
Db|-5-rest-3---------8-rest-3--------|

Lyrics_

Verse 1

You, Lynyrd Skynyrd hat
And me, little kiddy
Sat across with the velvet jacket
Wild orange hair, and dark, dark eyes
I gawked, like a twelve-year-old smitten
Carla the Stripper
Straight from L.A.
You seem cool for a naked chick in a booth
Lets be pals some day . . .   in other words
Put some clothes on and call me



Chorus

I saw you
It was incredible

Verse 2

Slim, relaxed buyin’ wine at the QFC
On a snowy Saturday night
Black pearls and I swear you were drinkin’ beer
You were the red-head behind the counter there
I’m the one who though of his chair there
You had your dry-cleaning and I think your dreaming

Chorus/Outro

I saw you
It was incredible
Mumbled these words at you
Unintelligible

Ma Ma Ma Ma
Ma Ma Ma Ma Ma Ma Ma


Ma Ma Hey ugh uhh yuh what time is it?


(I saw you, it was incredible)
Comments