Presidents Of The Usa - Some Postman Is Grooving Chords & Tabs

 

Some Postman Is Grooving Chords & Tabs

Presidents Of The Usa Chords & Tabs

Version: 1 Type: Tab 0 ratings
1 star 2 stars 3 stars 4 stars 5 stars
comments

Some Postman Is Grooving Tab

-----------------------------------
-----------------------------------
---------4-4-4-4-8-8-8-8-6-6-6-6---
-6-6-6-6-4-4-4-4-8-8-8-8-6-6-6-6---
-6-6-6-6-2-2-2-2-6-6-6-6-4-4-4-4---
-4-4-4-4---------------------------
p.m..............................
its six A
M andthe sun is getting high

-----------------------------------
-----------------------------------
---------4-4-4-4-2~----------------
-6-6-6-6-4-4-4-4-2~----------------
-6-6-6-6-2-2-2-2-0~----------------
-4-4-4-4---------------------------
p.m.............
he picks up the mail from the slot

-----------------------------------
-----------------------------------
---------4-4-4-4-8-8-8-8-6-6-6-6---
-6-6-6-6-4-4-4-4-8-8-8-8-6-6-6-6---
-6-6-6-6-2-2-2-2-6-6-6-6-4-4-4-4---
-4-4-4-4---------------------------
p.m..............................
he feels the 
rush of exitement as he holds it in his hand

---------------------------------------
---------------------------------------
---------4-4-4-4-----------------------
-6-6-6-6-4-4-4-4-----------------------
-6-6-6-6-2-2-2-2-2-2-2-2-2-2-2-2-2-2-2-
-4-4-4-4---------0-0-0-0-0-0-0-0-0-0-0-
p.m.............
another love note nowone got.

-----------------------------------
-----------------------------------
----4--8--6~-6-6-6-----------------
-6--4--8--6~-6-6-6-----------------
-6--2--6--4~-4-4-4-----------------
-4---------------------------------
Some postman
is grooving
to all our love letters
[ Tab from: http://www.guitartabs.cc/tabs/p/presidents_of_the_usa/some_postman_is_grooving_tab.html ]
-----------------------------------
-----------------------------------
---------4-4-4-4-2-2-2-2-2-2-2-2---
-6-6-6-6-4-4-4-4-2-2-2-2-2-2-2-2---
-6-6-6-6-2-2-2-2-0-0-0-0-0-0-0-0---
-4-4-4-4---------------------------
Some postmans gonna cry

-----------------------------------
-----------------------------------
---------4-4-4-4-8-8-8-8-6-6-6-6---
-6-6-6-6-4-4-4-4-8-8-8-8-6-6-6-6---
-6-6-6-6-2-2-2-2-6-6-6-6-4-4-4-4---
-4-4-4-4---------------------------
some postman is grooving to all our love letters

-----------------------------------
-----------------------------------
---------4-4-4-4-------------------
-6-6-6-6-4-4-4-4-------------------
-6-6-6-6-2-2-2-2-2-2-2-2-----------
-4-4-4-4---------0-0-0-0-----------
some postmans gonna cry
-----------------------------------
-----------------------------------
-----------------------------------
-13b~-14b~-15b~--------------------
-----------------------------------
-----------------------------------
gonna cry, gonna cry

repeat everything then

-----------------------------------
-----------------------------------
-----------------------------------
-13-14-15-16-----------------------
-----------------------------------
-------------13b-14b-15b-16b-------

-----------------------------------
-----------------------------------
-----------------------------------
--13-14-15-16--18-18-18-18---------
-----------------------------------
-----------------------------------

the rest is just variations of all that.
Comments