Presidents Of The Usa - Peaches Chords & Tabs

 

Peaches Chords & Tabs

Presidents Of The Usa Chords & Tabs

Version: 2 Type: Tab 1 rating
1 star 2 stars 3 stars 4 stars 5 stars
comments

Peaches Tab

   
Tune down a half 1/2 step= (Db,Gb,Cb,Fb,Ab,Db) 

Intro
:-------------------:
:-------------------:
:-------------------:
:-----0-0-0-0-0-0---:2x
:-----5-5-5-5-5-5---:
:-------------------:

 2 Intro
:-----------------------------------------------------:
:--------------------------------5-5-3----------------:
:-----5-5-5-5-4-2-2-4-2-2-0--5-5------2-2-2-2-4-2-2-0-:
:-----------------------------------------------------:
:-----------------------------------------------------:
:-----------------------------------------------------:
[ Tab from: http://www.guitartabs.cc/tabs/p/presidents_of_the_usa/peaches_tab_ver_2.html ]
Verse
      D    Em  D   F
:-----2----3---2---3-: I'm not sure if this is right but, listen to the song to figure it out. 
:-----3----5---3---3-: Strum each chord 4 x.
:-----2----4---2---4-:
:------------------5-:
:--------------------:
:--------------------:

Chorus
        F         C#
:-----------------------:
:-----------------------:
:-----------------------:
:-----3-3-3-3--8-8-8-8--:     
:-----3-3-3-3--8-8-8-8--:
:-----1-1-1-1--6-6-6-6--:
           A
:-------7-7-7-7-:
:-------7-7-7-7-:
:-------5-5-5-5-:

________
2 Intro
________
Verse
________
chorus
________
Bridge
:------------------:
:------------------:
:-------7--5--4--5-: each chord strummed 4x
:-------7--5--4--5-:
:-------5--3--2--3-:
:------------------:

and it ends with the bridge

   enjoy!!!
Comments