Presidents Of The Usa - Naked And Famous Chords & Tabs

 

Naked And Famous Chords & Tabs

Presidents Of The Usa Chords & Tabs

Version: 1 Type: Bass Tab 0 ratings
1 star 2 stars 3 stars 4 stars 5 stars
comments

Naked And Famous Bass Tab

   
no one is gonna put out any tabs for this song, so i guess ill have to

its not bass, im just showing 4 strings

intro/verse

G--------------------------------|
D--------------------------------|
A-----4-------4-------4---8--6-4-|
E-4-4---4-4-4---4-4-4---4--------|

"those lucky suckers" (palm mute)
G-66666--6666--666666-|
D-66666--6666--666666-|
A-44444--4444--444444-|
E---------------------|
[ Tab from: http://www.guitartabs.cc/tabs/p/presidents_of_the_usa/naked_and_famous_btab.html ]
chorus"everybody wants to be"
G-6-6-6-6-11-11-11-11-6-6-6-6-11-11-11-11-6-6-6-6-11-11-|
D-6-6-6-6-11-11-11-11-6-6-6-6-11-11-11-11-6-6-6-6-11-11-|
A-4-4-4-4-9--9--9--9--4-4-4-4-9--9--9--9--4-4-4-4-9--9--|
E-------------------------------------------------------|


i have no idea what the solo is

outro(dont have a nose bleed)
G-6-6-4-4---------6-6---------4-4-|
D-6-6-4-4-4-4-2-2-6-6-4-4-6-6-4-4-|
A-4-4-2-2-4-4-2-2-4-4-4-4-6-6-2-2-|
E---------2-2-0-0-----2-2-4-4-----|

at the end when he goes "aaannd famous" he plays this after
G--------|
D--------|
A-8--6-4-|
E--------|

questions, corrections? email me at SSK1116@aol.com

also, SOMEBODY TAB OUT THE SOLO!!!
Comments