Presidents Of The Usa - Munky River Chords & Tabs

 

Munky River Chords & Tabs

Presidents Of The Usa Chords & Tabs

Version: 1 Type: Bass Tab 0 ratings
1 star 2 stars 3 stars 4 stars 5 stars
comments

Munky River Bass Tab

be sure to carress the bass on this one.
[ Tab from: http://www.guitartabs.cc/tabs/p/presidents_of_the_usa/munky_river_btab.html ]
---------------------------------------------|
------8-8-9----9-9-----6-6-8-8-6\4-----------|
---------------------------------------------|
-0----------------0--------------------------|
In the hazy light i see
a lonley crow
dark green dream
i got no paddle and i got no shoes
im solo in the rawhide conoe
hundreds of them little bug eyed
them drooly-runny glassy eyes
smillin throught the foggy soup
i crack a grin and laugh in tune

----------------------------------------------|
------9----------8-8-6\4----------------------|
----------------------------------------------|
-0---------0----------------------------------|
i would love to float, on,
monkey river


do whatever your heart desires for the solo/breakout part
Comments