Presidents Of The Usa - Lump Chords & Tabs

 

Lump Chords & Tabs

Presidents Of The Usa Chords & Tabs

Version: 1 Type: Bass Tab 0 ratings
1 star 2 stars 3 stars 4 stars 5 stars
comments

Lump Bass Tab

Song Title: lump
Artist: presidents of the united states of america
----------------------------------------------

ok this is A real easy song, as with most of the presidents stuff.
in the lump sat alone part, it is just drums...but then it goes "she's lump"
you go  
G------------------------------------
D------------------------------------
A---5-3-5-3-5-3----------------------
E---------------2-2-2-2-3-3-3-3-3-3-3
[ Tab from: http://www.guitartabs.cc/tabs/p/presidents_of_the_usa/lump_btab.html ]
THEN it goes "lump lingered last blah blah what ever, you go
A-5-5-5-5-5-5-5-5-3-3-3-3------- DO THIS UMMM 3X
E------------------------1-1-1-1                
THEN DO THE FIRST THING AGAIN
THEN WHEN IT GOES "IS THIS LUMP OUT OF MY HEAD" STUFF, YOU DO THIS
A-5-5-5-5-5-5-5-----1-2-3-3
E--------------1-2-3-------0-3-5-3-0
DO THIS A FEW TIMES....WELL, BASICLY THATS IT...don't bother whineing to me 
about it if it is wrong, i usually wont reply scince i am a pretty busy
kid..:) buh-bye for now....!!!


Submitted by:  chris clarke (chris.clarke@ajaxshuttle.com)
Comments