Presidents Of The Usa - Love Everybody Chords & Tabs

 

Love Everybody Chords & Tabs

Presidents Of The Usa Chords & Tabs

Version: 1 Type: Bass Tab 0 ratings
1 star 2 stars 3 stars 4 stars 5 stars
comments

Love Everybody Bass Tab

---------------------------------|
---------------------------------|
---------------------------------|
-00-2-0-2/5b---------------------|
you got to love everybody
make them feel good about themselves

---------------------------------|
---------------------------------|
-6-6-6-6-6-6-6-6-6-6-6-6---------|
---------------------------------|

---------------------------------|
----------------9-9-9-9-9-9-9-9--|
-6-6-6-6-6-6-6-6-----------------|
---------------------------------|
sally could barley rally
she lived in a cardboard ally
convinced that she was doin fine
burt was a millionaire
sellen that spray on hair
sippin californian wine
she was hardly handeling and panhandeling
she was squeezin out a dime at a time
from his limosine he could see
beuty underneath the dirt

---------------------------------|
---------------------------------|
---------------------------------|
-0-0-0-0-0-0-0-0-----------------|
and this is what it said on the sign
it said you gotta-

---------------------------------|
---------------------------------|
---------------------------------|
-00-2-0--2/5b--------------------|
love everybody
make them feel good about themselves

during all the weird effects:
---------------------------------|
---------------------------------|
-6b------------------------------|  <(bend the HELL out of that string.)
---------------------------------|
[ Tab from: http://www.guitartabs.cc/tabs/p/presidents_of_the_usa/love_everybody_btab.html ]
-----------------------------------|
----------------9-9-9-9-9-9-9-9-9--|
-6-6-6-6-6-6-6-6-------------------|
-----------------------------------|
bree was worth billions she was killingly beutiful
a diamond with a bit of his charm
harvey was starving carving tatoos on the punks
called himself da vinci of arms

---------------------------------|
---------------------------------|
--6-6-6-6-6-6-6-6----------------|
---------------------------------|
she was high on tweenkies when she pulled in thinking
she could just get in an out convineince is bliss
by the flash on the wall she seemed twenty feet tall

---------------------------------|
---------------------------------|
---------------------------------|
-0-0-0-0-0-0-0-0-----------------|
and this is what he put on her fist
he said you gotta love everybody,
make them feel good about themselves

---------------------------------|
---------------------------------|
---------------------------------|
-00-2-0-2/5b---------------------|


---------------------------------|
---------------------------------|
---------------------------------|
-5-5-5-5-5-5-5-5-7-7-7-7-7-7-7-7-|
love everybody
love everybody
love everybody

---------------------------------|
----5675-------------------------|
-567-----------------------------|
---------------------------------|
tonight!

---------------------------------|
--11-11-11-11-11-11-11-11--------|  
							
													
Comments