Presidents Of The Usa - Cleveland Rocks Chords & Tabs

 

Cleveland Rocks Chords & Tabs

Presidents Of The Usa Chords & Tabs

Version: 1 Type: Tab 1 rating
1 star 2 stars 3 stars 4 stars 5 stars
comments

Cleveland Rocks Tab

   
Cleveland Rocks
Presidents of the USA

For Years I wanted the tablature to Cleveland Rocks, but I could not
find it.Then I broke down and got the sheet music.I got it,messed around with it then used it.

[ Tab from: http://www.guitartabs.cc/tabs/p/presidents_of_the_usa/cleveland_rocks_tab.html ]
 Ab        F7      C             
|0---------0-------0-----0-------------------------------------|
|1--3--1---1--3-1--1-3-1-1-3-1---------------------------1-----|
|------2--------2------0-----0--2----2---2-2-2-2------------2--|
|--------------------------------------------------------------|
|--------------------------------------------------------------|
|--------------------------------------------------------------|
                                 All this enargy callin' me
                   A5
|-------------------------------------------------------|
|-------------------------------------1---------------1-|
|2---0-----2--0---------2----0-2----0---2---2----0------|
|-----------------2-------------------------------------|
|-------------------------------------------------------|
|-------------------------------------------------------|
 back where it comes from. Such a crude attitude, back where it
        A5
|-------------------------------------------------------|
|-------------------------------------------------------|
|0-2----------------------------------------------------|
|-------------------------------------------------------|
|-------------------------------------------------------|
|-------------------------------------------------------|
 belongs...


Chorus 1
F
All the little kids growin' up on the skids go
C
Cleveland Rocks!,Cleveland Rocks!
F
Jumpin' jean jean is movin James Dean goin'
C
Cleveland Rocks!, Cleveland rocks

Verse 2:

Momma knows but she don't care
she got worries too.
Seven kids and a phony affair
and the rent is do----


Chorus 2:

All the chicks with the crim-son lips go 
Cleveland Rocks!,Cleveland Rocks!
Livin in sin with a safty pin goin'
Cleveland Rocks!, Cleveland Rocks! (repeat 4x)

Ab 
I've got some records from world war 2
F
I'm play how my grandady do
G
he was a rocker and I am too so
G                  G
Cleveland Rock,yes Cleveland Rocks!

Spoken:
Cleveland Rocks,Cleveland Rocks
Cleveland Rocks ,Cleveland rocks

C               D/C             F/C              C5
Cleveland Rocks,Cleveland Rocks,Cleveland Rocks (OHIO!)

Notes:

Verse two uses the same tablature as the first verse,and both of the chorus uses the same chords.





     
Comments