Presidents Of The United States - Were Not Going To Make It Chords & Tabs

 

Were Not Going To Make It Chords & Tabs

Presidents Of The United States Chords & Tabs

Version: 1 Type: Bass Tab 1 rating
1 star 2 stars 3 stars 4 stars 5 stars
comments

Were Not Going To Make It Bass Tab

Song: We're Not Going To Make It
Artist: The Presidents of the United States of America

Alright. This is my favorite song by my favorite band,
and I finally figured it out. Anyway, here is
the bass tabliture for We're Not Going To Make It.

The song's bass beginning is as follows:
g------------------------------------------
d------------------------------------------
a--4-4-4---6-6-6-6--9-9-9--4-4-4-4---------
e------------------------------------------

                 then, for the chorus...
g------------------------------------------
d------------------------------------------
a--4-4-4--6-6-6-6--9-9-9--6-6-6-6-6--------
e------------------------------------------

g------------------------------------------
d------------------------------------------
a--4-4-4--6-6-6-6--9-9-9--4-4-4-4-4--------
e------------------------------------------
[ Tab from: http://www.guitartabs.cc/tabs/p/presidents_of_the_united_states/were_not_going_to_make_it_btab.html ]
        And for the verse(s).....
g------------------------------------------
d------------------------------------------ 
a--9-9--6--4----9-9--11--4-----------------
e------------------------------------------
                    (repeat)

Now for the "deep in my heart... I do belive" part...
g------------------------------------------
d------------------------------------------
a--4-4-4-4-4-4-4-4--6-6-6-6-6-6-6-6--9-9-9-9-9-9-9
e------------------------------------------
                           (repeat)

Here's the "no, no, no, no," etc. part.....
g------------------------------------------
d------------------------------------------
a---4--6--9--11---------------------------------
e------------------------------------------
                  (Play each note 8 times) 
                  (Play this part 4 times.)


	That's about it. If any bass players want to start
a tab mailing list, mail me at jg13@ix.netcom.com or
ZVDP18A@prodigy.com. Oh yeah.... Check out my homepage at
http://pages.prodigy.com/gelb/home.html

                       Later!!
                        -Jeff






Comments