Presidents Of The United States - Volcano Chords & Tabs

 

Volcano Chords & Tabs

Presidents Of The United States Chords & Tabs

Version: 1 Type: Bass Tab 0 ratings
1 star 2 stars 3 stars 4 stars 5 stars
comments

Volcano Bass Tab

Here is some bass tab that goes in the Presidents of the USA section in bass
tab:

Presidents of the USA: Volcano
Album: II
Tabbed by: Dimitris Zarmakoupis (bassman@comfortable.com)

Tune down a whole step down or use the B and E strings on a five string
bass.

Intro:

E-2-2-2-2-0-------0-2-----------------------
A------------0-0----------------------------

E-2-----------------------------------------
A------------2-------------------6----------


Chorus:

[ Tab from: http://www.guitartabs.cc/tabs/p/presidents_of_the_united_states/volcano_btab.html ]
E-2-2-2-2--0--------0-2----------------------
A--------------0-0---------------------------


Verse 1:

E-2---2--------------------------------------
A------------2---2---6---6-------------------

Verse 2:

E-4---4--------------------------------------
A-----------4---4---8---8--------------------

Dimitris Zarmakoupis (bassman@comfortable)
******************************************************
Dimitris Aris Zarmakoupis
e-mail: bassman@comfortable.com
California
Quote: Only someone who has lost can be a true winner.
******************************************************



Comments