Prefab Sprout - King Of Rock 'n' Roll Chords & Tabs

 

King Of Rock 'n' Roll Chords & Tabs

Prefab Sprout Chords & Tabs

Version: 2 Type: Bass Tab 0 ratings
1 star 2 stars 3 stars 4 stars 5 stars
comments

King Of Rock 'n' Roll Bass Tab

   
INTRO
G|-------------------------------------------------------|
D|------457------457------235------235-------------------|
A|4h5-5----4h5-5----2h3-3----2h3-3----------457------457-|
E|------------------------------------4h5-5----4h5-5-----|

G|----------------------------------------------------------------|
D|----------------------------------------------------------------|
A|----------------------------------------------------------------|
E|3-3-3-3-2-2-2-2-0-0-0-0-0-0-0-0-3-3-3-3-2-2-2-2-0-0-0-0-0-0-0-0-|

VERSE
G|------------------------------------------------------------------------|
D|------457------457------235------235------------------------------------|
A|4h5-5----4h5-5----2h3-3----2h3-3----------457------457-------235---5-3~-|
E|------------------------------------4h5-5----4h5-5-----2h3-3-----2------|

G|----------------------------------------------------------------------|
D|----457------457------235------235------------------------------------|
A|5-5----4h5-5----2h3-3----2h3-3----------457------457-------235---5-3~-|
E|----------------------------------4h5-5----4h5-5-----2h3-3-----2------|

PRE-CHORUS
G|------------------------|
D|------------------------|
A|5-----3-----1-----------|
E|-------------------0000-|

CHORUS
G|----------------------------------------|
D|----------------------------------------|
A|4h5-5-5-5-2h3-3-3-3-0h1-1-1-1-----------|
E|------------------------------0h1-1-1-1-|

G|----------------------------------------|
D|----------------------------------------|
A|4h5-5-5-5-2h3-3-3-3-0h1-1-1-1-----------|
E|------------------------------0h1-1-1-1-|

VERSE
G|------------------------------------------------------------------------|
D|------457------457------235------235------------------------------------|
A|4h5-5----4h5-5----2h3-3----2h3-3----------457------457-------235---5-3~-|
E|------------------------------------4h5-5----4h5-5-----2h3-3-----2------|

G|------------------------------------------------------------------------|
D|------457------457------235------235------------------------------------|
A|4h5-5----4h5-5----2h3-3----2h3-3----------457------457-------235---5-3~-|
E|------------------------------------4h5-5----4h5-5-----2h3-3-----2------|
[ Tab from: http://www.guitartabs.cc/tabs/p/prefab_sprout/king_of_rock_n_roll_btab_ver_2.html ]
PRE-CHORUS
G|------------------------|
D|------------------------|
A|5-----3-----1-----------|
E|-------------------0000-|

CHORUS
G|----------------------------------------|
D|----------------------------------------|
A|4h5-5-5-5-2h3-3-3-3-0h1-1-1-1-----------|
E|------------------------------0h1-1-1-1-|

G|----------------------------------------|
D|----------------------------------------|
A|4h5-5-5-5-2h3-3-3-3-0h1-1-1-1-----------|
E|------------------------------0h1-1-1-1-|

G|-
D|-
A|-
E|1/*slide up*

G|----------------------------------------|
D|----------------------------------------|
A|4h5-5-5-5-2h3-3-3-3-0h1-1-1-1-----------|
E|------------------------------0h1-1-1-1-|

G|----------------------------------------|
D|----------------------------------------|
A|4h5-5-5-5-2h3-3-3-3-0h1-1-1-1-----------|
E|------------------------------0h1-1-1-1-|


VERSE
G|------------------------------------------------------------------------|
D|------457------457------235------235------------------------------------|
A|4h5-5----4h5-5----2h3-3----2h3-3----------457------457-------235---5-3~-|
E|------------------------------------4h5-5----4h5-5-----2h3-3-----2------|

G|------------------------------------------------------------------------|
D|------457------457------235------235------------------------------------|
A|4h5-5----4h5-5----2h3-3----2h3-3----------457------457-------235---5-3~-|
E|------------------------------------4h5-5----4h5-5-----2h3-3-----2------|

PRE-CHORUS
G|------------------------|
D|------------------------|
A|5-----3-----1-----------|
E|-------------------0000-|

CHORUS
G|----------------------------------------|
D|----------------------------------------|
A|4h5-5-5-5-2h3-3-3-3-0h1-1-1-1-----------|
E|------------------------------0h1-1-1-1-|

G|----------------------------------------|
D|----------------------------------------|
A|4h5-5-5-5-2h3-3-3-3-0h1-1-1-1-----------|
E|------------------------------0h1-1-1-1-|

G|-
D|-
A|-
E|1/*slide up*

G|-----------------------------------------------|\
D|-----------------------------------------------| \
A|4h5-5-5-5-2h3-3-3-3-0h1-1-1-1------------------| /play x7
E|------------------------------0h1-1-1-1--------|/

G|------------------------------------|
D|------------------------------------|
A|4h5-5-5-5-2h3-3-3-3-0h1-1-1-1-------|
E|------------------------------0h1-1-|
Comments