Precious Death - You Cant Break Me Chords & Tabs

 

You Cant Break Me Chords & Tabs

Precious Death Chords & Tabs

Version: 1 Type: Tab 0 ratings
1 star 2 stars 3 stars 4 stars 5 stars
comments

You Cant Break Me Tab

#-----------------------------------------------------------------------------#
#-- File created with Instab - http://www.pconline.com/~smcarey/instab.html --#
#-----------------------------------------------------------------------------#

Author/Artist: Precious Death
Title: You Can't Break Me
Album: If You Must
Transcribed by: Jed
Email: CokeMan007@usa.net

Tune 1/2 step low and drop D tune.  Ignore top two strings on the tab, and enjoy
!
I'm not sure how many times to repeat some parts of this song, try to figure it
out.
Visit my webpage at http://members.tripod.com/~CokeMan007/index.html

-------------------------------------------------------|----------------------|
-------------------------------------------------------|----------------------|
-------------------------------------------------------|----------------------|
-------------------------------------------------------|----------------------|
-------------------------------------------------------|----------------------|
-0-0-0---0-0-0-1-3-1-0-0---0-0-0---5--5--5--5--5-6-7-0-|----------------------|
 Part 1(above)/Part 2(below)
[ Tab from: http://www.guitartabs.cc/tabs/p/precious_death/you_cant_break_me_tab.html ]
---------------------------------|--------------------------------------------|
---------------------------------|--------------------------------------------|
---------------------------------|--------------------------------------------|
---------------------------------|--------------------------------------------|
---------------------------------|-4x-----------------------------------------|
-0---0---1-0-0-0---0-1-0-0-0-1-0-|--------------------------------------------|
 Part 3{below, I never new the name of the game..(that part)}

---------------------------------|--------------------------------------------|
---------------------------------|--------------------------------------------|
---------------------------------|--------------------------------------------|
---------------------------------|--------------------------------------------|
---------------------------------|-4x-----------------------------------------|
-0---0---4-3-0-0---4-3-0-0-0-5-6-|--------------------------------------------|
 Part 1/Part 2/Part 3/Part 4(below)

---------------------------------|--------------------------------------------|
---------------------------------|--------------------------------------------|
---------------------------------|--------------------------------------------|
---------------------------------|--------------------------------------------|
---------3-2-0-----3-2-0-----4-5-|-4x-----------------------------------------|
-0---0---------0---------0-0-----|--------------------------------------------|
 Part 5(below)

--------------|----------------|----|------------------------------|----------|
--------------|----------------|----|------------------------------|----------|
--------------|----------------|----|------------------------------|----------|
--------------|----------------|----|------------------------------|----------|
-3---------3-4|-5--------------|-3x-|------------------------------|----------|
--------------|----------------|----|-1-1-1-1---1-1-1-1---1-1-1-1--|----------|
 Part 3(during solo)/Part 1/Part 2/Part 3/Part 4/Part 5/Part 3(fade)
Comments