Precious Death - Moments Chords & Tabs

 

Moments Chords & Tabs

Precious Death Chords & Tabs

Version: 1 Type: Tab 0 ratings
1 star 2 stars 3 stars 4 stars 5 stars
comments

Moments Tab

#-----------------------------------------------------------------------------#
#-- File created with Instab - http://www.pconline.com/~smcarey/instab.html --#
#-----------------------------------------------------------------------------#

Author/Artist: Precious Death
Title: Moments
Album: If You Must
Transcribed by: Jed
Email: CokeMan007@usa.net

Tuned 1/2 step low.  Ignore the top 2 strings since this is for bass.  Enjoy!
Visit my webpage at http://members.tripod.com/~CokeMan007/index.html

------------------------------------|-----------------------------------------|
------------------------------------|-----------------------------------------|
-------4-----------5----------------|-----------------------------------------|
----2-----2-----3-----1--0----------|-----------------------------------------|
----------------------------3--0----|-----------------------------------------|
-0-----------1-------------------3--|-----------------------------------------|
 Piano part(above)/Part 1(below)

---------------------------------|-----|---------------------------------|----|
---------------------------------|-----|---------------------------------|----|
---------------------------------|-----|---------------------------------|----|
---------------------------------|-----|---------------------------------|----|
---------------------------------|-3x--|-----------------5-4-------------|----|
-0-2-3---3---0-2-3---3---0-2-3---|-----|-0-2-3---3---0-2-----------------|----|


---------------------------------|-----|---------------------------------|----|
---------------------------------|-----|---------------------------------|----|
---------------------------------|-----|---------------------------------|----|
---------------------------------|-----|---------------------------------|----|
---------------------------------|-3x--|---------------------------------|----|
-0-2-3---3---0-2-3---3---0-2-3---|-----|-0-2-3---3---2---2---1---1---0---|----|
 Part 2(below, not exactly sure, but it is in 5/4 time, play many times)
[ Tab from: http://www.guitartabs.cc/tabs/p/precious_death/moments_tab.html ]
---------------------|--------------------------------------------------------|
---------------------|--------------------------------------------------------|
---------------------|--------------------------------------------------------|
-------------6-------|--------------------------------------------------------|
-------6---------6---|--------------------------------------------------------|
-4-------------------|--------------------------------------------------------|
 Part 1/Part 2/Part 1(cut off)/Piano/Part 3(during solo)

--------------------------------|---------------------------------------------|
--------------------------------|---------------------------------------------|
--------------------------------|---------------------------------------------|
--------------------------------|---------------------------------------------|
---------------------------0----|---------------------------------------------|
-0-2-2---2---0-2-2---2---2------|---------------------------------------------|
 repeat above part(around 4x I think), then..

--------------------------------|---------------------------------------------|
--------------------------------|---------------------------------------------|
--------------------------------|---------------------------------------------|
--------------------------------|---------------------------------------------|
---------------------------2----|---------------------------------------------|
-2-4-4---4---2-4-4---4---4------|---------------------------------------------|
 repeat above part same as the part above it/Part 1/Part 2/Piano(octave high)

------------------------------------------------------------------------------|
------------------------------------------------------------------------------|
------------------------------------------------------------------------------|
------------------------------------------------------------------------------|
------------------------------------------------------------------------------|
------------------------------------------------------------------------------|
 Intro(bass could be slapping E string harmonics?)
Comments