Pre Shrunk - Pollen Chords & Tabs

 

Pollen Chords & Tabs

Pre Shrunk Chords & Tabs

Version: 2 Type: Bass Tab 0 ratings
1 star 2 stars 3 stars 4 stars 5 stars
comments

Pollen Bass Tab

Song: Pollen
Band: Pre_Shrunk
EP: Sub Chakra
Tabbed by Manda & Ritchie preshrunk@email.com
http://creation.preshrunk.net/

****** Dave's parts ******

This first bit's all harmonics
                                 x24          x2
G| -5.1---------------------------|-----------|
D| ------3.9------5.1-------------|---[5.1]---|
A| -----------3.1------3.9--------|---[5.1]---|
E| --------------------------3.1--|-----------|

                                         x4
G| --------------------------------------|
D| -14-14--------------------------------|
A| ---------15-15-15---------------------|
E| ---------------------16-16-16/12-12---|

*Repeat this whole bit 3 times
*G| ---------16--17/19-----------------------*
*D| -14--17--------------------21--19--19/21-*
*A| -----------------------------------------*
*E| -----------------------------------------*

*G| ---------16-17/19-------18/21---------------*
*D| -14--17-----------17/19--------21--19-19/21-*
*A| --------------------------------------------*
*E| --------------------------------------------*

*G| -21--18---------21-17/13------*
*D| ---------19-------------------*
*A| ------------------------------*
*E| ------------------------------*

x4
G| ---------9^12--12-------------|
D| -12^14-------------9--9^12----|
A| ------------------------------|
E| ------------------------------|
[ Tab from: http://www.guitartabs.cc/tabs/p/pre_shrunk/pollen_btab_ver_2.html ]
x4 
G| -------------12-12--------|
D| 12-12--14-14-------9-9----|
A| --------------------------|
E| --------------------------|

Then back to this again....
                                       x4
G| ------------------------------------|
D| -14-14------------------------------|
A| ---------15-15-15-------------------|
E| ---------------------16-16-16/12-12-|

Solo kinda thing Repeat all ?? times 
G| -----------------------------------|
D| -----------------------------------|
A| ----10-14-14/17--------14-17-12/14-|
E| -12--------------------------------|

G|----------------18-18-21-18-18/21---|
D|-------------19---------------------|
A|----10-14-21------------------------|
E|-12---------------------------------|

G| -21-18-14------21-17/13------------|
D| -----------------------------------|
A| -----------------------------------|
E| -----------------------------------|

****** Davage's parts ******

Intro
G|----------------------|
D|---------12-13--------|
A|-----10---------------|
E|--12------------12/---|

Verse
G|-------------------------|-------|
D|*-----------------------*|-------|
A|*--7-7--3-3-3-----------*|-------|
E|--------------4-4-4-0-0--|--12/--|

Chorus
x8 x4 x8
G|------------------|-------------------------------|------------------|
D|------------------|---------5--5-5----------------|------------------|
A|--7-7-7-r-7-7-7-r-|--7--7-7---------------5--5-5--|--7-7-7-r-7-7-7-r-|
E|------------------|----------------7--7-7---------|------------------|
Comments