Pre Shrunk - Millipede Chords & Tabs

 

Millipede Chords & Tabs

Pre Shrunk Chords & Tabs

Version: 1 Type: Bass Tab 0 ratings
1 star 2 stars 3 stars 4 stars 5 stars
comments

Millipede Bass Tab

Song: Millipede
Band: Pre_Shrunk
As yet unreleased
Tabbed by Manda & Ritchie preshrunk@email.com
http://creation.preshrunk.net/

****** Davage's parts ******
[ Tab from: http://www.guitartabs.cc/tabs/p/pre_shrunk/millipede_btab.html ]
intro....
G|--------------------------------------------------------------------|
D|---0-1-2-3-------0-1-2^3-------------0-1-2-3---------3----3-3-0-1-1-|
A|-3-----------0^3---------0^2^3---0^3---------3b-1-0-----------------|
E|--------------------------------------------------------------------|

main bit....
G|-----5-5-0-3-0-4-5-----5-5---------------------|
D|-------------------------------0^1-5^4-1-------|
A|-3-3---------------0^3-----0^3-----------3-----|
E|-----------------------------------------------|

Comments