Powerman 5000 - When Worlds Collide Chords & Tabs

 

When Worlds Collide Chords & Tabs

Powerman 5000 Chords & Tabs

Version: 2 Type: Bass Tab 0 ratings
1 star 2 stars 3 stars 4 stars 5 stars
comments

When Worlds Collide Bass Tab

Powerman 5000 
when worlds colide 
by pm5k  tabbed by matt hittinger 
------------------------------------------------- 
------------------------------------------------- 
---3-3-3-3-3------------------------------------- 
--------------4-4-4-4-4-------------------------- 
[ Tab from: http://www.guitartabs.cc/tabs/p/powerman_5000/when_worlds_collide_btab_ver_2.html ]
--------------------------------------------------------- 
--------------------------------------------------------- 
------------------------------------------------0-------- 
----2-2-0-2-0-2--2-2-0-2-0-2--2-2-0-2-0-2-2-0-2---------- 

no bass in the mellow part 

------------------------------------------------------------- 
------------------------------------------------------------- 
-3-3-3-3-3-3-3--2-2-2-2-2-2-2----------------------------0--- 
-----------------------------------2-2-0-2-0-2-2-0-2--------- 
Comments