Powerman 5000 - The Shape Of Things To Come Chords & Tabs

 

The Shape Of Things To Come Chords & Tabs

Powerman 5000 Chords & Tabs

Version: 1 Type: Tab 0 ratings
1 star 2 stars 3 stars 4 stars 5 stars
comments

The Shape Of Things To Come Tab

   
Artist: Powerman 5000
Song: The Shape of Things to Come
Album: Transform

/ = slide
~ = hold out note

intro/verse

D--------------------------|
A---9~---10~---9-10~-------| X???
E-7----7-----7-------------|

Prechorus
e-------------------------------------------------------------------|
b-------------------------------------------------------------------|
G-------------------------------------------------------------------|
D-99999999-10-10-10-10-10-10-10-10-99999999-10-10-10-10-12-12-12-12-| X2
A-99999999-10-10-10-10-10-10-10-10-99999999-10-10-10-10-12-12-12-12-|
E-77777777-8--8--8--8--8--8--8--8--77777777-8--8--8--8--10-10-10-10-|
[ Tab from: http://www.guitartabs.cc/tabs/p/powerman_5000/the_shape_of_things_to_come_tab.html ]
little riff between prechorus and chorus
e---------------------|
b---------------------|
G---------------------|
D-12/13-12/9-9/10-9/7-|
A-12/13-12/9-9/10-9/7-|
E-10/11-10/7-7/8--7/5-|

chorus
these are just the chords in order, you can get the strum pattern easy
e-------------------------------|
b-------------------------------|
G-------------------------------|
D-5-7-3---5-6-7---5-7-3---5-7-8-|
A-5-7-3---5-6-7---5-7-3---5-7-8-|
E-3-5-1---3-4-5---3-5-1---3-5-6-|

"now turn your back and walk away..."

G------------------------------|
D-7-5-7-3-7-5-333333-222222-2~-|
A-7-5-7-3-7-5-333333-222222-2~-|
E-5-3-5-1-5-3-111111-000000-0~-|

thats about it for this song. enjoy!
Comments