Powerman 5000 - Supernova Goes Pop Chords & Tabs

 

Supernova Goes Pop Chords & Tabs

Powerman 5000 Chords & Tabs

Version: 6 Type: Tab 0 ratings
1 star 2 stars 3 stars 4 stars 5 stars
comments

Supernova Goes Pop Tab

   
Supernova Goes Pop
P O W E R M A N   5 0 0 0
Tabbed By Aaron Bridgeman (rokken@sicness.net)

http://bogans.arecool.net

TUNING: Drop D down 1/2 step (Db Ab Db Gb Bb eb)

KEY:
pm. = palm mute
~   = vibrato

INTRO / MAIN RIFF:
eb|-----------------------------|
Bb|-----------------------------|
Gb|-----------------------------|
Db|-----------------------------|
Ab|-0---0--3-3-3---0---0--5-5-5-|
Db|-0---0--3-3-3---0---0--5-5-5-|
[ Tab from: http://www.guitartabs.cc/tabs/p/powerman_5000/supernova_goes_pop_tab_ver_6.html ]
INTRO LEAD:
eb|-----------------------------------------------------------|
Bb|----15----16----15----13----13-----15----16----15----19~~~-|
Gb|-13----13----13----13----13-----13----13----13----13-------|
Db|-----------------------------------------------------------|
Ab|-----------------------------------------------------------|
Db|-----------------------------------------------------------|
slide around those notes, add effect if you got it

PRE-CHORUS:
eb|---------------------------------------------------|
Bb|---------------------------------------------------|
Gb|---------------------------------------------------|
Db|-0-0-0-5-5-5-6-6-6-3-3-3-----1-0-0-0-5-5-5-6/9-9-9-|
Ab|-0-0-0-5-5-5-6-6-6-3-3-3-----1-0-0-0-5-5-5-6/9-9-9-|
Db|-0-0-0-5-5-5-6-6-6-3-3-3-1-1-1-0-0-0-5-5-5-6/9-9-9-|
pm                          . .

CHORUS:
eb|-------|
Bb|-------|
Gb|-------|
Db|-------|
Ab|-0-0-0-|
Db|-0-0-0-|
pm  . . .

SUPERNOVA GOES POP!
Comments