Powerman 5000 - Supernova Goes Pop Chords & Tabs

 

Supernova Goes Pop Chords & Tabs

Powerman 5000 Chords & Tabs

Version: 3 Type: Tab 0 ratings
1 star 2 stars 3 stars 4 stars 5 stars
comments

Supernova Goes Pop Tab

Song: "Supernova" 
 Album: Tonight the Stars Revolt 
 Artist: Powerman 5000 
 Release Date: 8/99 
 Tabbed by: HTMLkiller@aol.com 

 Dropped D Tuning 

 Intro 
 E------------------------------------------------------------ 
 B------------------------------------------------------------ 
 G------------------------------------------------------------ 
 D-0--0--3-3-3-0---0---6-6-6-0---0---3-3-3-0---0---0h3s6s3---- 
 A-0--0--3-3-3-0---0---6-6-6-0---0---3-3-3-0---0---0h3s6s3---- 
 D-0--0--3-3-3-0---0---6-6-6-0---0---3-3-3-0---0---0h3s6s3---- 
[ Tab from: http://www.guitartabs.cc/tabs/p/powerman_5000/supernova_goes_pop_tab_ver_3.html ]
 Played with main riff 
 E---------------------------------------------------------------------- 
 B-10--12--10--14--10--12--10--9-----10--12--10--14--10--12--10--16s17-- 
 G---------------------------------------------------------------------- 
 D---------------------------------------------------------------------- 
 A---------------------------------------------------------------------- 
 D---------------------------------------------------------------------- 

 Verse is a simple variation of Intro.(I'm sure you can figure it out) 

 Chorus 
 E----------------------------------------------------------------------------- 
 -------- 
 B----------------------------------------------------------------------------- 
 -------- 
 G----------------------------------------------------------------------------- 
 -------- 
 D---19-19-19--15-15-15--17-17-17--13-13-13---x-x-0----19-19-19--15-15-15--21-2 
 1-21-21- 
 A---19-19-19--15-15-15--17-17-17--13-13-13---x-x-0----19-19-19--15-15-15--21-2 
 1-21-21- 
 D---19-19-19--15-15-15--17-17-17--13-13-13---x-x-0----19-19-19--15-15-15--21-2 
 1-21-21- 
 Follow for now........ 

 E-------------------------------------- 
 B-------------------------------------- 
 G-------------------------------------- 
 D-----------------------------x-x-x---- 
 A-----------------------------x-x-x---- 
 D-----------------------------x-x-x---- 
 Supernova...your supernova........ 


 Thats all for now. Correct/add if you wish. 
Comments