Powerman 5000 - Supernova Goes Pop Chords & Tabs

 

Supernova Goes Pop Chords & Tabs

Powerman 5000 Chords & Tabs

Version: 3 Type: Bass Tab 0 ratings
1 star 2 stars 3 stars 4 stars 5 stars
comments

Supernova Goes Pop Bass Tab

Powerman 5000
Supernova goes pop

Intro/verse/bridge
[ Tab from: http://www.guitartabs.cc/tabs/p/powerman_5000/supernova_goes_pop_btab_ver_3.html ]
g|--------------------|
d|-------------333--|
a|-4-4-666-4-4---|
e|--------------------|

Chours

g|---------------------3---|
d|--4--1---------4--1----|
a|4------4-414-4-------|
e|--------------------------|

its a really easy song
Comments