Powerman 5000 - Super Nova Goes Pop Chords & Tabs

 

Super Nova Goes Pop Chords & Tabs

Powerman 5000 Chords & Tabs

Version: 1 Type: Bass Tab 0 ratings
1 star 2 stars 3 stars 4 stars 5 stars
comments

Super Nova Goes Pop Bass Tab

Powerman 5000
Super Nova Goes Pop
tabbed by:jhurley12

intro/verse/bridge

g|-----------------111--|
d|---2-2--444-----------|
a|-------------1-1------|
e|----------------------|

chourus
[ Tab from: http://www.guitartabs.cc/tabs/p/powerman_5000/super_nova_goes_pop_btab.html ]
g|-----------------------2---|
d|--2--1---------2--1--------|
a|2------2-212-2-------------|
e|---------------------------|

it is a really easy song to play 
comments or Questions: jjs_ELEMENT@hotmail.com
Comments