Powerman 5000 - Stereotype Chords & Tabs

 

Stereotype Chords & Tabs

Powerman 5000 Chords & Tabs

Version: 1 Type: Tab 0 ratings
1 star 2 stars 3 stars 4 stars 5 stars
comments

Stereotype Tab

   
Artist: Powerman 5000
Song: Stereotype
Album: Transform

*NOTE* i did not include most of the second guitar because it requires special
effects and is not a vital part of the song, so it's easiest to just play the
same thing on guitars 1 and 2 (minus the intro, that's easy!)

Intro/verse (guitar 1 verse only)

guitar 1 clean
e-------------------------------------------------------|
b-------------------------------------------------------|
G-------------------------------------------------------|
D-77-x-7-77-x-7-77-x-7-77-x-5-55-x-5-55-x-5-55-x-5-55-x-|
A-77-x-7-77-x-7-77-x-7-77-x-5-55-x-5-55-x-5-55-x-5-55-x-|
E-55-x-5-55-x-5-55-x-5-55-x-3-33-x-3-33-x-3-33-x-3-33-x-|

guitar 2 clean
e-9---5~--------9---5~--------|
b-10--8~-7--10~-10--8~-7--10~-|
G-9---7~-7--7~--9---7~-7--7~--|
D-0---0~-0--0~--0---0~-0--0~--|
A-----------------------------|
E-----------------------------|
[ Tab from: http://www.guitartabs.cc/tabs/p/powerman_5000/stereotype_tab.html ]
part before the verse
guitar 1 distorted
e-----------------------------------------|
b-----------------------------------------|
G-----------------------------------------|
D-7777777777777-10-10-10-5555555555555555-|
A-7777777777777-10-10-10-5555555555555555-|
E-5555555555555-8--8--8--3333333333333333-|

the verse is the same as the guitar 1 intro

part before chorus
e-------------|
b-------------|
G-------------|
D-55-77-88-99-|
A-55-77-88-99-|
E-33-55-66-77-|

chorus
e----------------------------------------------------|
b----------------------------------------------------|
G----------------------------------------------------| X1 then it switches a
D-77777777-10-10-10-10-10-10-10-10-66666666-55555555-|     little to:
A-77777777-10-10-10-10-10-10-10-10-66666666-55555555-|
E-55555555-8--8--8--8--8--8--8--8--44444444-33333333-|

e----------------------------------------------------|
b----------------------------------------------------|
G----------------------------------------------------| X1
D-77777777-10-10-10-10-10-10-10-10-55555555-66666666-|
A-77777777-10-10-10-10-10-10-10-10-55555555-66666666-|
E-55555555-8--8--8--8--8--8--8--8--33333333-44444444-|

and that's the song. you just kinda hafta fit the pieces together. listen to it
and you'll get it (once again, i have no email!!). 'til next tab, later!
Comments