Powerman 5000 - Organized Chords & Tabs

 

Organized Chords & Tabs

Powerman 5000 Chords & Tabs

Version: 1 Type: Bass Tab 0 ratings
1 star 2 stars 3 stars 4 stars 5 stars
comments

Organized Bass Tab

Powerman 5000 - Organizized
Submitted By: rap_boy
EMail: jason_wassup@hotmail.com

[ Tab from: http://www.guitartabs.cc/tabs/p/powerman_5000/organized_btab.html ]
begining part
hes using some sort of slow wah during the begingin parts
------------------------------------------------------------------------------
---6---5---4------------------------------------------------------------------
-------------2--22--4---------------------------------------------------------
-4---3---2------------4/------------------------------------------------------
------------------------------------------------------------------------------
                                                                              
chorus
no effects
------------------------------------------------------------------------------
---6---5---4b---6---5---4-----------------------------------------------------
--------------------------2--22-4---------------------------------------------
-4---3---2----4---3---2-------------------------------------------------------
------------------------------------------------------------------------------
                                                                              
bridge thing
also no effects
------------------------------------------------------------------------------
-6543---3210--6543---3210---6543---3210-1-2-6---------------------------------
------------------------------------------------------------------------------
------------------------------------------------------------------------------
------------------------------------------------------------------------------
                                                                              

------------------------------------------------------------------------------
------------------------------------------------------------------------------
------------------------------------------------------------------------------
------------------------------------------------------------------------------
-9876---6543---9876---6543-4-5-7-9--------------------------------------------
Comments