Powerman 5000 - Nobodys Real Chords & Tabs

 

Nobodys Real Chords & Tabs

Powerman 5000 Chords & Tabs

Version: 2 Type: Tab 0 ratings
1 star 2 stars 3 stars 4 stars 5 stars
comments

Nobodys Real Tab

#----------------------------------PLEASE NOTE--------------------------------#
#This file is the author's own work and represents their interpretation of the#
#song. You may only use this file for private study, scholarship, or research.#
#-----------------------------------------------------------------------------#
#-- File created with Instab - http://www.pconline.com/~smcarey/instab.html --#
#-----------------------------------------------------------------------------#

Author/Artist: Powerman 5000 (PM5K)
Title: Nobody's Real
Album: TONIGHT THE STARS REVOLT!!!
Transcribed by: Evan W.
Email: EvanC17@aol.com

This is in Drop D Tuning!

-12-----12----12----12--------------------------------------------------------
----12-----11----10----10-9---------------------------------------------------
------------------------------------------------------------------------------
------------------------------------------------------------------------------
------------------------------------------------------------------------------
------------------------------------------------------------------------------
 Weird solo at the Beginning (starts after the weird intro effects)           
[ Tab from: http://www.guitartabs.cc/tabs/p/powerman_5000/nobodys_real_tab_ver_2.html ]
------------------------------------------------------------------------------
------------------------------------------------------------------------------
------------------------------------------------------------------------------
------------------------------------------------------------------------------
-2-2-2-2-2-2------------------------------------------------------------------
-2-2-2-2-2-2------------------------------------------------------------------
 pm---------        Verse!                                                    

------------------------------------------------------------------------------
------------------------------------------------------------------------------
------------------------------------------------------------------------------
------------------------------------------------------------------------------
-2-5-5-7-7-9-9-12-------------------------------------------------------------
-2-5-5-7-7-9-9-12-------------------------------------------------------------
 Chorus                                                                       

------------------------------------------------------------------------------
------------------------------------------------------------------------------
------------------------------------------------------------------------------
------------------------------------------------------------------------------
-2-2-2-2-2-2-2-2-5------------------------------------------------------------
-2-2-2-2-2-2-2-2-5------------------------------------------------------------
 pm-------------      Bridge!                                                 

-12----12----12----12---------------------------------------------------------
----12----11----10----10-9----------------------------------------------------
------------------------------------------------------------------------------
------------------------------------------------------------------------------
------------------------------------------------------------------------------
------------------------------------------------------------------------------
 This is what the other guitar plays on the Bridge!                           

Comments