Powerman 5000 - Nobodys Real Chords & Tabs

 

Nobodys Real Chords & Tabs

Powerman 5000 Chords & Tabs

Version: 1 Type: Tab 0 ratings
1 star 2 stars 3 stars 4 stars 5 stars
comments

Nobodys Real Tab

   
Nobody's Real
P O W E R M A N   5 0 0 0
Tabbed By Aaron Bridgeman (rokken@sicness.net)

http://bogans.arecool.net

TUNING: Drop D down 1/2 step (Db Ab Db Gb Bb eb)

KEY:
\ = slide down
~ = sustain
[ Tab from: http://www.guitartabs.cc/tabs/p/powerman_5000/nobodys_real_tab.html ]
LEAD INTRO:
eb|-12-----12-----12-----12-----------|
Bb|----12~----11~----10~----10-10\9~~-|
Gb|-----------------------------------|
Db|-----------------------------------|
Ab|-----------------------------------|
Db|-----------------------------------|

CHORUS:
eb|-----------------------------|
Bb|-----------------------------|
Gb|-----------------------------|
Db|-2-2~--5-5~--7-7~--9-9-7-7-9-|
Ab|-2-2~--5-5~--7-7~--9-9-7-7-9-|
Db|-2-2~--5-5~--7-7~--9-9-7-7-9-|

That's all I got
Comments