Powerman 5000 - Good Times Roll Chords & Tabs

 

Good Times Roll Chords & Tabs

Powerman 5000 Chords & Tabs

Version: 2 Type: Tab 0 ratings
1 star 2 stars 3 stars 4 stars 5 stars
comments

Good Times Roll Tab

Intro/Verse
e---------------------------------
B---------------------------------
G---------------------------------
D------8---8---8--------6---6---6-
A------8---8------------6---6-----
E------6---6------------4---4-----

Prechorus
e--------------------
B--------------------
G--------------------
D-4-4---4-4---6-6--6-
A-4-4---4-4---6-6--6-
E-2-2---2-2---4-4--4-

Chorus 
e-----------------------------------------------
B-----------------------------------------------
G---------------------------------------8--6----
D-8888888888888888---4444444444444444---8--6--6-
A-8888888888888888---4444444444444444---6--4--3-
E-6666666666666666---2222222222222222---------3-

Preverse
e-----------------------------------------------
B-----------------------------------------------
G-----------------------------------------------
D-8-8---8-8---8-8---8-8---8-8---8-8---8-8-----8-
A-8-8---8-8---8-8---8-8---8-8---8-8---8-8-----8-
E-6-6---6-6---6-6---6-6---6-6---6-6---6-6-----6-
[ Tab from: http://www.guitartabs.cc/tabs/p/powerman_5000/good_times_roll_tab_ver_2.html ]
Verse 2/3
e----------------------------------------------------------------
B----------------------------------------------------------------
G----------------------------------------------------------------
D-8-8---8-8---6-6---6-6------------------------------------------
A-8-8---8-8---6-6---6-6------5-6-5-----5-6-5-----5-6-5-----5-6-5-
E-6-6---6-6---4-4---4-4----6---------6---------6---------6-------

Prechorus
Chorus

Bridge
e---------------------------------------------------------
B---------------------------------------------------------
G---------------------------------------------------------
D-88888888888888-10-6-----------4-4-4-4-4-4-4-4---8--6--5-
A-88888888888888-10-6-----------4-4-4-4-4-4-4-4---8--6--5-
E-66666666666666-8--4-----------2-2-2-2-2-2-2-2---6--4--3-

Preverse
Verse 3
Prechorus
Chorus

Outro
e--------------------------------------------------------------
B--------------------------------------------------------------
G--------------------------------------------------------8-6---
D-8888888888888888--6666666666666666--4444444444444444---8-6-6-
A-8888888888888888--6666666666666666--4444444444444444---6-4-3-
E-6666666666666666--4444444444444444--2222222222222222-------3-

Tabbed by Jon Sumner
Comments