Powerman 5000 - Free Chords & Tabs

 

Free Chords & Tabs

Powerman 5000 Chords & Tabs

Version: 6 Type: Tab 0 ratings
1 star 2 stars 3 stars 4 stars 5 stars
comments

Free Tab

Artist: Powerman 5000
Title: Free
Album: Transform
Author: J.S. Robinson

This is a great song by a great band. The song is in standard tuning.
(E,A,D,G,B,E). THIS IS THE RHYTHM TO THE SONG, BUT I AM WORKING ON LEAD.

INTRO, this is pretty much the easiest part of the song. The rhythm is very easy.

 ---------------------------------------------------------------------
 ---------------------------------------------------------------------
 ---------------------------------------------------------------------
 --9---------7---------5---------2------------------------------------
 --9--X4-----7--X4-----5--X4-----2--X4--------------------------------
 --7---------5---------3---------0------------------------------------

LET's GO! Now play all chords together.

 ---------------------------------------------------------------------
 ---------------------------------------------------------------------
 ---------------------------------------------------------------------
 --9----7----5----2---------------------------------------------------
 --9-x4-7-x4-5-x4-2-x4------------------------------------------------
 --7----5----3----0---------------------------------------------------

Play the INTRO for whenever Spyder starts to sing.

CHORUS
[ Tab from: http://www.guitartabs.cc/tabs/p/powerman_5000/free_tab_ver_6.html ]
 ---------------------------------------------------------------------
 ---------------------------------------------------------------------
 ---------------------------------------------------------------------
 -5----7----2---------------------------------------------------------X3
 -5-x3-7-x3-2-x5------------------------------------------------------
 -3----5----0---------------------------------------------------------
WHEN SPYDER SAYS "CAN'T SEE WHAT CHA WANNA SEE"
 ---------------------------------------------------------------------
 ---------------------------------------------------------------------
 ---------------------------------------------------------------------
 -9-----5-----2-------------------------------------------------------
 -9-X3--5-X3--2-X5----------------------------------------------------
 -7-----3-----0-------------------------------------------------------

BRIDGE (PALM MUTE)

 ---------------------------------------------------------------------
 ---------------------------------------------------------------------
 ---------------------------------------------------------------------
 ---------------------------------------------------------------------
 ---------------------------------------------------------------------
 -9-x8-7-x8-5-x8-0-x8-------------------------------------------------
Comments