Powerman 5000 - Free Chords & Tabs

 

Free Chords & Tabs

Powerman 5000 Chords & Tabs

Version: 1 Type: Tab 0 ratings
1 star 2 stars 3 stars 4 stars 5 stars
comments

Free Tab

   
tabbed by teel
drop c tuning........c,g,c,f,a,d
song: free
artist:powerman 5000
off of album TRANSFORM

opening riff......used throughout song
[ Tab from: http://www.guitartabs.cc/tabs/p/powerman_5000/free_tab.html ]
------------------------------------------
------------------------------------------
-------------------5----------------------
-5-5-5-5--3-3-3-3---5---------------------
-3-3-3-3--1-1-1-1------6-6-6-6----3-3-3-3-
-----------------------6-6-6-6----3-3-3-3-
lead riff..used throughout song

-----------------------
-----------------------
-----------------------
-5--5-/8-5---5--3------
--6-----------6---3----
-----------------------
chours

-----------------------------
-----------------------------
-----------------------------
-----------------------------
-6-6-6-/8-8-8-1-1-3--1-3-1-3-
-6-6-6-/8-8-8-1-1-3--1-3-1-3-
                     p p p p



Comments