Powerman 5000 - Free Chords & Tabs

 

Free Chords & Tabs

Powerman 5000 Chords & Tabs

Version: 2 Type: Bass Tab 0 ratings
1 star 2 stars 3 stars 4 stars 5 stars
comments

Free Bass Tab

   
-------------------------------------------------------------------------------
			   Free - Powerman 5000
-------------------------------------------------------------------------------
Artist: Powerman 5000
Song: Free (Track 3)
Albulm: Transform 
Tabbed by: ZeroisGreatMan
Tuning: BEADG

Main Riff 1:(Intro/Verse/Fill/Outro) *Played first time
G|------------------------------------------------------------|
D|------------------------------------------------------------|
A|------------------------------------------------------------|
E|-6-6-6-6-6-6-6--4-4-4-4-4-4-4-------------------------------|
B|-------------------------------7-7-7-7-7-7-7--4-4-4-4-4-4-4-|
[ Tab from: http://www.guitartabs.cc/tabs/p/powerman_5000/free_btab_ver_2.html ]
Main Riff 2*Played the second time [w/Flanger]
G|-3-3-3-3-3-3-3--1-1-1-1-1-1-1-------------------------------|
D|-------------------------------4-4-4-4-4-4-4--1-1-1-1-1-1-1-|
A|------------------------------------------------------------|
E|------------------------------------------------------------|
B|------------------------------------------------------------|

Chorus: "Because living so free..."
G|------------------------------------|
D|------------------------------------|
A|------------------------------------|
E|-2-2-2-2--/4-4-4-4------------------|
B|--------------------6-6-4-4-6-6-4-4-|

Bridge: "Wishing and hoping..."
G|----------------------------------------------------|
D|----------------------------------------------------|
A|-4-4-4-4-4-4--3-3-3-3-3-3--1-1-1-1-1-1--------------|
E|----------------------------------------2-2-2-2-2-2-|
B|----------------------------------------------------|

| /  slide up
| \  slide down
| h  hammer-on
| p  pull-off
| ~  vibrato
| +  harmonic
| x  Mute note
===============================================================================
Comments