Powerman 5000 - Danger Is Go Chords & Tabs

 

Danger Is Go Chords & Tabs

Powerman 5000 Chords & Tabs

Version: 2 Type: Tab 0 ratings
1 star 2 stars 3 stars 4 stars 5 stars
comments

Danger Is Go Tab

First tab ever, but since I'm awesome at everything else I do, I can say it is pretty much right!

Danger is Go!
Powerman 5000

/-slide down

Dropped D tuning

|---------------------------------------------------------------------------------------|
|---------------------------------------------------------------------------------------|
|---------------------------------------------------------------------------------------|
|---3-3-6-0-0-0--0-0-0--0-0-0-0-3-3-6-0-0-332211----------------------------------------|
|---3-3-6-0-0-0--0-0-0--0-0-0-0-3-3-6-0-0-332211----------------------------------------|
|---3-3-6-0-0-0--0-0-0--0-0-0-0-3-3-6-0-0-332211----------------------------------------|x2

then...

|---------------------------------------------------------------------------------------|
|---------------------------------------------------------------------------------------|
|---------------------------------------------------------------------------------------|
|-----------12/0-0----------------------------------------------------------------------|
|-----------12/0-0----------------------------------------------------------------------|
|-----------12/0-0----------------------------------------------------------------------|x3

after that 3 times, then do this...

|---------------------------------------------------------------------------------------|
|---------------------------------------------------------------------------------------|
|---------------------------------------------------------------------------------------|
|-----------12/0-0--------------3-5-6---------------------------------------------------|
|-----------12/0-0--------------3-5-6---------------------------------------------------|
|-----------12/0-0--------------3-5-6---------------------------------------------------|x1

|---------------------------------------------------------------------------------------|
|---------------------------------------------------------------------------------------|
|---------------------------------------------------------------------------------------|
|---3-3-6-0-0-0--0-0-0--0-0-0-0-3-3-6-0-0-332211----------------------------------------|
|---3-3-6-0-0-0--0-0-0--0-0-0-0-3-3-6-0-0-332211----------------------------------------|
|---3-3-6-0-0-0--0-0-0--0-0-0-0-3-3-6-0-0-332211----------------------------------------|x2

|---------------------------------------------------------------------------------------|
|---------------------------------------------------------------------------------------|
|---------------------------------------------------------------------------------------|
|-12-12-12-12-12-12-12-12-15-15-15-10-10-10-12-12-12-12-12-12-12-12-15/8--15/8----------|
|-12-12-12-12-12-12-12-12-15-15-15-10-10-10-12-12-12-12-12-12-12-12-15/8--15/8----------|
|-12-12-12-12-12-12-12-12-15-15-15-10-10-10-12-12-12-12-12-12-12-12-15/8--15/8----------|x2

|-----------------------------------------------------------------------------------------|
|-----------------------------------------------------------------------------------------|
|-----------------------------------------------------------------------------------------|
|---3-3-6-0-0-0--0-0-0--0-0-0-0-3-3-6-0-0-332211------------------------------------------|
|---3-3-6-0-0-0--0-0-0--0-0-0-0-3-3-6-0-0-332211------------------------------------------|
|---3-3-6-0-0-0--0-0-0--0-0-0-0-3-3-6-0-0-332211------------------------------------------|

|---------------------------------------------------------------------------------------|
|---------------------------------------------------------------------------------------|
|---------------------------------------------------------------------------------------|
|-----------12/0-0----------------------------------------------------------------------|
|-----------12/0-0----------------------------------------------------------------------|
|-----------12/0-0----------------------------------------------------------------------|x1

do that once, then throw a little thing in on the second time

|---------------------------------------------------------------------------------------|
|---------------------------------------------------------------------------------------|
|---------------------------------------------------------------------------------------|
|-----------12/0-0------------------------7-6-------------------------------------------|
|-----------12/0-0------------------------7-6-------------------------------------------|
|-----------12/0-0------------------------7-6-------------------------------------------|x1
[ Tab from: http://www.guitartabs.cc/tabs/p/powerman_5000/danger_is_go_tab_ver_2.html ]
then do the normal thing for the other two.

|---------------------------------------------------------------------------------------|
|---------------------------------------------------------------------------------------|
|---------------------------------------------------------------------------------------|
|-----------12/0-0----------------------------------------------------------------------|
|-----------12/0-0----------------------------------------------------------------------|
|-----------12/0-0----------------------------------------------------------------------|x2

|---------------------------------------------------------------------------------------|
|---------------------------------------------------------------------------------------|
|---------------------------------------------------------------------------------------|
|-12-12-12-12-12-12-12-12-15-15-15-10-10-10-12-12-12-12-12-12-12-12-15/8--15/8----------|
|-12-12-12-12-12-12-12-12-15-15-15-10-10-10-12-12-12-12-12-12-12-12-15/8--15/8----------|
|-12-12-12-12-12-12-12-12-15-15-15-10-10-10-12-12-12-12-12-12-12-12-15/8--15/8----------|x2

|---------------------------------------------------------------------------------------|
|---------------------------------------------------------------------------------------|
|---------------------------------------------------------------------------------------|
|---3-3-6-0-0-0--0-0-0--0-0-0-0-3-3-6-0-0-332211----------------------------------------|
|---3-3-6-0-0-0--0-0-0--0-0-0-0-3-3-6-0-0-332211----------------------------------------|
|---3-3-6-0-0-0--0-0-0--0-0-0-0-3-3-6-0-0-332211----------------------------------------|x2

Hold the last chord out then go into this...

|---------------------------------------------------------------------------------------|
|---------------------------------------------------------------------------------------|
|---------------------------------------------------------------------------------------|
|-12-12-12-12-12-12-12-12-15-15-15-10-10-10-12-12-12-12-12-12-12-12-15/8--15/8----------|
|-12-12-12-12-12-12-12-12-15-15-15-10-10-10-12-12-12-12-12-12-12-12-15/8--15/8----------|
|-12-12-12-12-12-12-12-12-15-15-15-10-10-10-12-12-12-12-12-12-12-12-15/8--15/8----------|x2

now for the crazy ending...

|---------------------------------------------------------------------------------------|
|---------------------------------------------------------------------------------------|
|---------------------------------------------------------------------------------------|
|-12-0-0-0-5-0-3-0-0-0-0-1-1-1-1--------------------------------------------------------|
|-12-0-0-0-5-0-3-0-0-0-0-1-1-1-1--------------------------------------------------------|
|-12-0-0-0-5-0-3-0-0-0-0-1-1-1-1--------------------------------------------------------|x3

When you do that 3 times, on the 4th time, do this...

|---------------------------------------------------------------------------------------|
|---------------------------------------------------------------------------------------|
|---------------------------------------------------------------------------------------|
|-12-0-0-0-5-0-3-0-0-0-0-1-1-1-1--------1----1----1-------------------------------------|
|-12-0-0-0-5-0-3-0-0-0-0-1-1-1-1--------1----1----1-------------------------------------|
|-12-0-0-0-5-0-3-0-0-0-0-1-1-1-1--------1----1----1-------------------------------------|x1

Then do the next 3...

|---------------------------------------------------------------------------------------|
|---------------------------------------------------------------------------------------|
|---------------------------------------------------------------------------------------|
|-12-0-0-0-5-0-3-0-0-0-0-1-1-1-1--------------------------------------------------------|
|-12-0-0-0-5-0-3-0-0-0-0-1-1-1-1--------------------------------------------------------|
|-12-0-0-0-5-0-3-0-0-0-0-1-1-1-1--------------------------------------------------------|x3

And on the 4th one of this set, do this again...

|---------------------------------------------------------------------------------------|
|---------------------------------------------------------------------------------------|
|---------------------------------------------------------------------------------------|
|-12-0-0-0-5-0-3-0-0-0-0-1-1-1-1--------1----1----1-------------------------------------|
|-12-0-0-0-5-0-3-0-0-0-0-1-1-1-1--------1----1----1-------------------------------------|
|-12-0-0-0-5-0-3-0-0-0-0-1-1-1-1--------1----1----1-------------------------------------|x1

If you have objections or suggestions to the way i did this tab, i dont really care...
Comments