Powerman 5000 - Bombshell Chords & Tabs

 

Bombshell Chords & Tabs

Powerman 5000 Chords & Tabs

Version: 1 Type: Tab 0 ratings
1 star 2 stars 3 stars 4 stars 5 stars
comments

Bombshell Tab

Band:Powerman5000
Song:Bombshell
Album:Anyone For Doomsday?
Tabbed By: Scorch2099, J.Brooks, and A. Perlmutter

Key: ^ = bend, PM = palm mute, tr= tremelo pick

Tempo: Fast Rock=146

   
E|----------------|----------------| Riff A
B|-11----------12-|----------------| (Guitar 1)
G|-------9--------|---9-----9-12-9-|
D|----------------|----------------|
A|----------------|----------------|
D|----------------|----------------|
 |		  |                |               3x
E|----------------|----------------| Rhy. Fig. 1
B|----------------|----------------| (Guitar 2)
G|----------------|----------------|
D|----------------|----------------|
A|-2-2---2-2---2-2|---2-2---2-5-2--|
D|-2-2---2-2---2-2|---2-2---2-5-2--|

E|----------------| Riff A1
B|-12-------------|
G|-------9-----7--|
D|----------------|
A|----------------|
D|----------------|
 |		  |
E|----------------| Rhy. Fig. 1A
B|----------------|
G|----------------|
D|----------------|
A|-2-2---2-2---0-0|
D|-2-2---2-2---0-0|

  PM - - - - - - - - - - - - - - - - -
E|--------------------|----------------| Riff B
B|--------------------|----------------|
G|-9-9-9-9-10-10-10-10|-7-7-7-7-9-9-9-9|
D|--------------------|----------------|
A|--------------------|----------------|
D|--------------------|----------------|
 |		      |		       |
E|--------------------|----------------| Rhy. Fig. 2
B|--------------------|----------------|
G|--------------------|----------------|
D|--------------------|----------------|
A|-2-2-2-2----------0-|-3-3-3-3-------0|
D|-2-2-2-2----------0-|-3-3-3-3-------0|

  PM - - - ^        PM - - - -  ^    PM
E|--------------------|----------------| Riff 2A
B|--------------------|----------------|
G|--------------------|----------------|
D|--------------------|----------------|
A|-2-2-2-2----------0-|-3-3-3-3-------0|
D|-2-2-2-2-2--------0-|-3-3-3-3-3-----0|

  PM - - - - - - - - -
E|--------------------|--------------------| Fig 1
B|--------------------|--------------------|
G|-9-9-9-9-10-10-10-10|-10---9----7----9---|
D|--------------------|--------------------|
A|--------------------|--------------------|
D|--------------------|--------------------|
 |PM - - - ^          |			   |
E|--------------------|--------------------| Fig 2
B|--------------------|--------------------|
G|--------------------|--------------------|
D|--------------------|--------------------|
A|-2-2-2-2----------0-|-3----2----0----2---|
D|-2-2-2-2-2--------0-|-3----2----0----2---|

  PM            - -
E|--------------------|--------------------| Fig 3
B|--------------------|--------------------|
G|--------------------|--------------------|
D|--------------------|--------------------|
A|-2-2------2-2-2-2-2-|--------------------|
D|-2-2------2-2-2-2-2-|--------------------|

  PM - - - -
E|--------------------| Fig 4
B|--------------------|
G|--------------------|
D|--------------------|
A|--3-3-3-3-----------|
D|--3-3-3-3-----------|

  W/ wah
E|--------------------|--------------------| Fig 5
B|--------------------|--------------------|
G|--9--7--9--9--------|--9--7--9--9--------|
D|--------------------|--------------------|
A|--------------------|--------------------|
D|--------------------|--------------------|

[ Tab from: http://www.guitartabs.cc/tabs/p/powerman_5000/bombshell_tab.html ]
E|--------------------|--------------------| Fig 6
B|----12--------------|--------------------|
G|----------9----7----|--------------------|
D|--------------------|--------------------|
A|--------------------|--------------------|
D|--------------------|--------------------|
 |               PM - |			   |
E|--------------------|--------------------| Fig 7
B|--------------------|--------------------|
G|--------------------|--------------------|
D|--------------------|--------------------|
A|----2-2---2-2--0-0--|--------------------|
D|----2-2---2-2--0-0--|--------------------|

  Interlude
E|--------------------|--------------------| 2x
B|--------------------|--------------------|
G|--------------------|--------------------|
D|----------------5---|-------7--------8---|
A|----------------x---|-------x--------x---|
D|----------------5---|-------7--------8---|
 |		      |			   |
E|--------------------|--------------------|
B|--------------------|--------------------|
G|--------------------|--------------------|
D|--------------------|--------------------|
A|-2-2---2-2----------|--------------------|
D|-2-2---2-2----------|--------------------|

  Outro
E|------------------------|------------------------| Rhy Fig 3
B|------------------------|------------------------|
G|------------------------|------------------------|
D|------------------------|------------------------|
A|-2--2--2--5--5--5--7--7-|-7--7--7--7--7--8--8-\--|
D|-2--2--2--5--5--5--7--7-|-7--7--7--7--7--8--8-\--|
 
E|-12-12-12-15-15----17-17|-17-17-17-17-17-18-18\--| w/ Rhy Fig 3
B|-x--x--x--x--x-----x--x-|-x--x--x--x--x--x--x-\--|
G|-9--9--9--12-12----14-14|-14-14-14-14-14-15-15\--|
D|------------------------|------------------------|
A|------------------------|------------------------|
D|------------------------|------------------------|

      ^    ^    ^    ^         ^    ^    ^    ^
E|---12---12---12---12----|---12---12---12---12----|
B|---15---15---15---15----|---15---15---15---15----|
G|------------------------|------------------------|
D|------------------------|------------------------|
A|------------------------|------------------------|
D|------------------------|------------------------|
 |        PM - - - -      | PM - - - -       PM - -
E|------------------------|------------------------|
B|------------------------|------------------------|
G|------------------------|------------------------|
D|------------------------|------------------------|
A|----3\2-------------3\2-|--------------3\2---0-0-|
D|----3\2---2-2-2-2---3\2-|----2-2-2-2---3\2---0-0-|


E|---12tr-----------------|---12tr-----------------|
B|---15tr-----------------|---15tr-----------------|
G|------------------------|------------------------|
D|------------------------|------------------------|
A|------------------------|------------------------|
D|------------------------|------------------------|
 | PM - - - -       PM - -|        PM - - - -
E|------------------------|------------------------|
B|------------------------|------------------------|
G|------------------------|------------------------|
D|------------------------|------------------------|
A|--------------3\2---0-0-|----3\2-------------0-2-|
D|----2-2-2-2---3\2---0-0-|----3\2---2-2-2-2---0-2-|

That's the song. I didnt really tell you how many times and what order the riffs and figures go in because we can't do all the work for you's. Enjoy, and don't bother emailing us for mistakes or anything cuz we dont get a damn.
Comments