Powderfinger - Since Youve Been Gone Chords & Tabs

 

Since Youve Been Gone Chords & Tabs

Powderfinger Chords & Tabs

Version: 1 Type: Tab 0 ratings
1 star 2 stars 3 stars 4 stars 5 stars
comments

Since Youve Been Gone Tab

   
Powderfinger - Since You've Been Gone
tabed by Alex B
alex_sexshop@hotmail.com    any sujestoins email me, advice always appreciated.

guitars tuned down half a step

Intro chords

    A#5  C#5  D#5


Eb|----------------|
Bb|----------------|
Gb|-4----7----9----|
Db|-4----7----9----|
Ab|-2----5----7----|
Eb|----------------|

guitar 2


    A#5  C#5  D#5


Eb|-------2----0----|
Bb|-------3----0----|
Gb|--4----2----1----|
Db|--4----0----2----|
Ab|--2----0----2----|
Eb|------------0----|


guitar 3 (intro lead)


    A#5  C#5  D#5


Eb|-------------------------|
Bb|-------------------------|
Gb|-------7--9--9b11-9--7---|
Db|-9--9------------------9-|
Ab|-------------------------|
Eb|-------------------------|


Second guitar plays fills throughout the verse. They're mostly around the open E
so try playing them with your fingers set to an open E and play the fills with you little
finger. then you'll get more realistic sound if you inadvertantly hit any other strings,
and you'll get those kind of bluesy imperfections.


G1


    A#5           C#5            D#5


Eb|---------------------------------------------------|
Bb|--4------------7---------------9-------------------|
Gb|--4------------7---------------9-------------------|
Db|--4------------7---------------9-------------------|
Ab|--2------------5---------------7-------------------|
Eb|---------------------------------------------------|

G2

Eb|--------------(2)-----2--0----(0)-----0-0--0-0--0-0--|
Bb|-(4)-------4--(3)-----3-----3-(0)-----0-0-3--3b-0-3--| (only a slight 1/4 bend)
Gb|-(4)---x-x----(2)-------------(1)--------------------|
Db|-(4)---x------(0)-------------(2)--------------------|
Ab|-(2)--------------------------(2)--------------------|
Eb|------------------------------(0)--------------------|

G1


    A#5           C#5            D#5


Eb|---------------------------------------------------|
Bb|--4------------7---------------9-------------------|
Gb|--4------------7---------------9-------------------|
Db|--4------------7---------------9-------------------|
Ab|--2------------5---------------7-------------------|
Eb|---------------------------------------------------|

G2


Eb|------------------------------(0)----0-3b-00--0-3b0-00--| (again only a 1/4 bend)
Bb|-(4)-----4----(7)---7---------(0)----0----00--0-----00--|
Gb|-(4)-----4----(7)---7---------(1)-----------------------|
Db|-(4)----------(7)-------------(2)-----------------------|
Ab|-(2)----------(5)-------------(2)-----------------------|
Eb|------------------------------(0)-----------------------|

G1


    A#5           C#5            D#5


Eb|---------------------------------------------------|
Bb|--4------------7---------------9-------------------|
Gb|--4------------7---------------9-------------------|
Db|--4------------7---------------9-------------------|
Ab|--2------------5---------------7-------------------|
Eb|---------------------------------------------------|

G2


Eb|------------------------------(0)----0-0-0--0-0-0---|
Bb|-(4)-----4----(7)---7---------(0)----0-0-0--0-2-0---|
Gb|-(4)-----4----(7)---7---------(1)----1-1-1----------|
Db|-(4)----------(7)-------------(2)--------2----------|
Ab|-(2)----------(5)-------------(2)--------2----------|
Eb|------------------------------(0)-3b----------------| (1/4 bend)

G1

[ Tab from: http://www.guitartabs.cc/tabs/p/powderfinger/since_youve_been_gone_tab.html ]
    A#5           C#5            D#5


Eb|---------------------------------------------------|
Bb|--4------------7---------------9-------------------|
Gb|--4------------7---------------9-------------------|
Db|--4------------7---------------9-------------------|
Ab|--2------------5---------------7-------------------|
Eb|---------------------------------------------------|

G2


Eb|------------------------------(0)-----0------------|
Bb|-(4)-----4----(7)---7---------(0)-----3b-----------|
Gb|-(4)-----4----(7)---7---------(1)------------------|
Db|-(4)----------(7)-------------(2)------------------|
Ab|-(2)----------(5)-------------(2)------------------|
Eb|------------------------------(0)------------------| (1/4 bend)

Chorus


    C# C#sus4   F# C# G#

Eb|-2--3--3--2-----3-2------------------|
Bb|-3--3--3--3--3--3-3--2---2--3--3--2--|
Gb|-2--2--2--2--0--2-2--2---2--2--2--2--|
Db|-0--0--0--0--0--0-0--2---2--2--2--2--|
Ab|-------------x-------0---0--0--0--0--|
Eb|-------------3-----------------------|

G1


    A#5           C#5            D#5


Eb|--------------------------------------------------|
Bb|--4------------7--------------9-------------------|
Gb|--4------------7--------------9-------------------|
Db|--4------------7--------------9-------------------|
Ab|--2------------5--------------7-------------------|
Eb|--------------------------------------------------|

G2


Eb|----------2--------0----0-----0---0----0-7b-0-3b-0-5-|
Bb|-------4---(4)-----0-3b-------0---0----0----0--------|
Gb|------------------------------2b4-2b4r2--------------|
Db|-----------------------------------------------------|
Ab|-----------------------------------------------------|
Eb|-----------------------------------------------------| (1/4 bend)

G1


    A#5           C#5            D#5


Eb|---------------------------------------------------|
Bb|--4------------7---------------9-------------------|
Gb|--4------------7---------------9-------------------|
Db|--4------------7---------------9-------------------|
Ab|--2------------5---------------7-------------------|
Eb|---------------------------------------------------|

G2


Eb|---0-0-0----------------------------------0-3b-----|
Bb|---5-0-3-5~----------------------------3b-0--------|
Gb|------------------------------------1--------------|
Db|--------------------------------0-2----------------|
Ab|---------------------------------------------------|
Eb|---------------------------------------------------| (1/4 bend)

Bridge


Eb|--------------------------------------------------------------------|
Bb|-4--5--5--5--4---7--9--9--7---9--10--9--10--10--9--10--10--10--9----|
Gb|-4--4--4--4--4---7--7--7--7---9--9---9--9---9---9--9---9---9---9----|
Db|--------------------------------------------------------------------|
Ab|--------------------------------------------------------------------|
Eb|--------------------------------------------------------------------| x2


then


Eb|--------------------------------------------------------------------|
Bb|--------------------------------------------------------------------|
Gb|-11b13--11~-----------7--9--9--9b11--9--7---------------------------|
Db|-----------------9-9------------------------9---9-------------------|
Ab|--------------------------------------------------------------------|
Eb|--------------------------------------------------------------------| x2
Comments