Powderfinger - On My Mind Chords & Tabs

 

On My Mind Chords & Tabs

Powderfinger Chords & Tabs

Version: 2 Type: Tab 0 ratings
1 star 2 stars 3 stars 4 stars 5 stars
comments

On My Mind Tab


 Atrist: Powderfinger 

 Song: On my mind   

 Transcriped by: Guitartime02


	^ Play up the strings
	= Slide to
	h hammer on

	INTRO
	e:|----------------------------------
	B:|----------------------------------
	G:|----------------------------------
	D:|--0---0---0---0---0===h0----------  x4 
	A:|--9---9---9---9---9===h3----------
	E:|--7---7---7---7---7===h1----------
	     ^       ^
[ Tab from: http://www.guitartabs.cc/tabs/p/powderfinger/on_my_mind_tab_ver_2.html ]
	MAIN RIFF
	e:|-------------------------------------------------------
	B:|------------------------------------------------------- 
	G:|------------------------------------------------------- 
	D:|--0--0--0--0--0--0-=-0--0--0--0-=--9--9--9--------------
	A:|--9--9--9--9--9--9-=-7--7--7--7-=--7--7--7--------------
	E:|--7--7--7--7--7--7-=-5--5--5--5-=--7--7--7--------------
	        ^     ^		   ^ 	 


	Any improvements or if you know the rest of the song 
        could you sent it to gutiartime@hotmail.com 
Comments