Powderfinger - On My Mind Chords & Tabs

 

On My Mind Chords & Tabs

Powderfinger Chords & Tabs

Version: 1 Type: Tab 1 rating
1 star 2 stars 3 stars 4 stars 5 stars
comments

On My Mind Tab

      

       #----------------------------------PLEASE NOTE---------------------------------#
       #This file is the author's own work and represents their interpretation of the #
       #song. You may only use this file for private study, scholarship, or research. #
       #------------------------------------------------------------------------------#


     Atrist: Powderfinger 

     Song: On my mind   

     Transcriped by: Guitartime02


	^ Play up the strings
	= Slide to
	h hammer on

	INTRO
	e:|----------------------------------
	B:|----------------------------------
	G:|----------------------------------
	D:|--0---0---0---0---0===h0----------  x4 
	A:|--8---8---8---8---8===h3----------
	E:|--6---6---6---6---6===h1----------
	     ^       ^
[ Tab from: http://www.guitartabs.cc/tabs/p/powderfinger/on_my_mind_tab.html ]
	MAIN RIFF
	e:|-------------------------------------------------------
	B:|------------------------------------------------------- 
	G:|------------------------------------------------------- 
	D:|--0--0--0--0--0--0-=-0--0--0--0-=--8--8--8-------------
	A:|--8--8--8--8--8--8-=-6--6--6--6-=--6--6--6-------------
	E:|--6--6--6--6--6--6-=-4--4--4--4-=--6--6--6-------------
	        ^     ^		   ^ 	 


	BRIDGE 1  
        e:|--10-=-9----10-=-11-------------------
	B:|--8----8----8----8--------------------
	G:|--9----9----9----9-------------------- 
	D:|--------------------------------------
	A:|--------------------------------------
	E:|--------------------------------------
        HAMMER ON THESE FOR A WHILE YOU WILL HAVE TO LISTEN TO THE 
	SONG FOR TIMING AND THE CORRECT AMOUNT OF TIMES THESE ARE PLAYED!! 
	FOR BOTH BRIDGES!!!  
     

	BRIDGE 2
	e:|--7--=---5--=---0----------------------
	B:|--7--=---5--=---0----------------------
	G:|--7--=---5--=---0---------------------- x4
	D:|---------------------------------------
	A:|---------------------------------------
	E:|---------------------------------------	
	


	Any improvements could be sent it to guitartime@email.com  




Comments