Powderfinger - Like A Dog Chords & Tabs

 

Like A Dog Chords & Tabs

Powderfinger Chords & Tabs

Version: 1 Type: Tab 0 ratings
1 star 2 stars 3 stars 4 stars 5 stars
comments

Like A Dog Tab

Like A Dog
P O W D E R F I N G E R
Tabbed By Aaron Bridgeman (rokken@sicness.net)

http://bogans.arecool.net

KEY:
* = harmonic
~ = vibrato
^ = bend up a bit
[ Tab from: http://www.guitartabs.cc/tabs/p/powderfinger/like_a_dog_tab.html ]
INTRO / VERSE: * * *                           * * *
e|-----------------------------------------------------------------|
B|-----------------------------------------------------------------|
G|-----------------------------------------------------------------|
D|-----5-5-----3-3-3-----5-------------3-3---------------3---------|
A|-6-6-----6-6-------6-6---6-6-6-5-4-4-----4-4-------4-4---4-4-4-5-|
E|---------------------------------------------3-3-3---------------|
               * * *                           * * *

PRE-CHORUS:
e|-11~~~~~---11^-9~~~~~---11~~~~~-13^-13^-9~~~~~-|
B|-----------------------------------------------|
G|-----------------------------------------------|
D|-----------------------------------------------|
A|-----------------------------------------------|
E|-----------------------------------------------|

CHORUS:
e|-------------------------|
B|-------------------------|
G|-------------------------|
D|----------------4--4-5-6-|
A|--------2-4-5-6----------|
E|-4----4------------------|

OTHER CHORUS BIT:
e|------|
B|------|
G|-3--6-|
D|-3--6-|
A|-1--4-|
E|------|

Yee-ha! Best 'finger song since "I don't wanna be left out"!
Comments