Powderfinger - Belter Chords & Tabs

 

Belter Chords & Tabs

Powderfinger Chords & Tabs

Version: 1 Type: Bass Tab 0 ratings
1 star 2 stars 3 stars 4 stars 5 stars
comments

Belter Bass Tab

Bass Tab
Belter
Powderfinger
Taken from the album “Internationalist”


Note: This tab is not entirely correct, this is the way
I play this …please send me any corrections

Tabbed by Darren Ground
Groundswell101@hotmail.com

Listen to recording for timing


Verse, after guitar intro
G-------------------------------------------------------
D-------------------------------------------------------
A-5/7---5/7---5/7—5/7—5/7----5/7------------------------
E-------------------------------------------------------

[ Tab from: http://www.guitartabs.cc/tabs/p/powderfinger/belter_btab.html ]
Verse variation
G-------------------------------------------------------
D-------------------------------------------------------
A-4-4-4-4-4-4-4-4--5-5-5-5-5-5-5-5----------------------
E-------------------------------------------------------


Bridge to chorus
G-------------------------------------------------------
D-------------------------------------------------------
A---------7/9-9-9------------------------------7-7------
E-2---2-2---------5---5-5---17\----0---0-0--0-----------

chorus
G-------------------------------------------------------
D-------------------------------------------------------
A-4-4-4-4-4-4-4-4-5-5-5-5-5-5-5-5-----------------------
E---------------------------------5-5-5-5-5-5-5-5-5-5-5-5


Repeat these riffs through song, in various combinations

Comments